Trustcompany - Falling Apart Chords & Tabs

 

Falling Apart Chords & Tabs

Trustcompany Chords & Tabs

Version: 1 Type: Tab 0 ratings
1 star 2 stars 3 stars 4 stars 5 stars
comments

Falling Apart Tab

   
Band- Trust Company
Song- Falling Apart

Tuning: Special - C#, G#, C#, F#, A#, C#

Intro
---------------------------------------------------------------|
---------------------------------------------------------------|
---------------------------------------------------------------|
---------------------------------------------------------------|
---------------------------------------------------------------|
---2-2-2-2----2-2-2----2-2-2-2----2-2-2------------------------|x2

Pre Verse
--------------------------------------------------------------|
--------------------------------------------------------------|
--------------------------------------------------------------|
--------------------------------------------------------------|
--------------------------------------------------------------|
-0h1--0h2--0h3--0h2--0h2--0h1--0h2p0--------------------------|x4

Verse
-----------------------------------------------------------------|
-----------------------------------------------------------------|
-----------------------------------------------------------------|
-----------------------------------------------------------------|
-----------------------------------------------------------------|
-----2----------2-2--5-----2-2--2-----2-2--5-----5-5--2----------|

Pre Chorus
-------------------------------------------------------------|
-------------------------------------------------------------|
-------------------------------------------------------------|
-------------------------------------------------------------|
-------------------------------------------------------------|
---2-2-2-2-2-2-2-2-2-2-2-2----5-5-5-5-5-5-5-5-5-5-5-5--------|
Figure out the strum pattern yourself

Chorus
--------------------------------------------------------------|
--------------------------------------------------------------|
--------------------------------------------------------------|
--------------------------------------------------------------|
--------------------------------------------------------------|
----5-5-5-5-5-5----0-0-0-0-0-0----2-2-2-2-2-2----5-5-5-5-5-5--|x2
Figure out the strum pattern.
[ Tab from: http://www.guitartabs.cc/tabs/t/trustcompany/falling_apart_tab.html ]
Verse
-----------------------------------------------------------------|
-----------------------------------------------------------------|
-----------------------------------------------------------------|
-----------------------------------------------------------------|
-----------------------------------------------------------------|
-----2----------2-2--5-----2-2--2-----2-2--5-----5-5--2----------|

Pre Chorus
-------------------------------------------------------------|
-------------------------------------------------------------|
-------------------------------------------------------------|
-------------------------------------------------------------|
-------------------------------------------------------------|
---2-2-2-2-2-2-2-2-2-2-2-2----5-5-5-5-5-5-5-5-5-5-5-5--------|
Figure out the strum pattern yourself

Chorus
--------------------------------------------------------------|
--------------------------------------------------------------|
--------------------------------------------------------------|
--------------------------------------------------------------|
--------------------------------------------------------------|
----5-5-5-5-5-5----0-0-0-0-0-0----2-2-2-2-2-2----5-5-5-5-5-5--|x2
Figure out the strum pattern.

Bridge
-----------------------------------------------------------------|
-----------------------------------------------------------------|
-----------------------------------------------------------------|
-----------------------------------------------------------------|
-----------------------------------------------------------------|
---2-2-2-2----2-2-2----2-2-2-2----2-2-2--------------------------|x2

--------------------------------------------------------------|
--------------------------------------------------------------|
--------------------------------------------------------------|
--------------------------------------------------------------|
--------------------------------------------------------------|
-0h1--0h2--0h3--0h2--0h2--0h1--0h2p0--------------------------|x6

Chorus
--------------------------------------------------------------|
--------------------------------------------------------------|
--------------------------------------------------------------|
--------------------------------------------------------------|
--------------------------------------------------------------|
----5-5-5-5-5-5----0-0-0-0-0-0----2-2-2-2-2-2----5-5-5-5-5-5--|x4

Outro
--------------------------------|
--------------------------------|
--------------------------------|
--------------------------------|
--------------------------------|
----2-2-2-2---------------------|
Comments