Trustcompany - Drop To Zero Chords & Tabs

 

Drop To Zero Chords & Tabs

Trustcompany Chords & Tabs

Version: 1 Type: Tab 0 ratings
1 star 2 stars 3 stars 4 stars 5 stars
comments

Drop To Zero Tab

This is such a great song... But no matter how hard I tried
I could not find a single tab for it on the internet.
So I made one myself...  I realize it isn't stellar, but I'm pretty sure
that it's at least a little accurate...

Intro
E|----------------------------||
B|----------------------------||
G|----------------------------||
D|-------14-13-14-13-13 14----||
A|----------------------------||
D|--0-------------------------||
(4x total)

E|----------------------------------||
B|----------------------------------||
G|----------------------------------||
D|----------------------------------||
A|----------------------------------||
D|---8p0-0-0--8p0-0-0--8p0--8p0-10--||

Then it kicks into the Heavy part
E|--------------------------------------------------------------------------||
B|--------------------------------------------------------------------------||
G|--------------------------------------------------------------------------||
D|--8p0-0-0--8p0-0-0---8p0-0--8p0-0-0--8p0-0-0--6-6-6-6-6-6--/-8-/-10-------||
A|--8p0-0-0--8p0-0-0---8p0-0--8p0-0-0--8p0-0-0--4-4-4-4-4-4-/-6-/--8--------||
D|--8p0-0-0--8p0-0-0---8p0-0--8p0-0-0--8p0-0-0------------------------------||

[at the end of the phrase, I appologize, but I can't seem to 
get the correct sliding.  You may want to listen to the song
to make sure that it is correct.]


Verse:

There is not much guitar, it is mostly the bass.  
[ Tab from: http://www.guitartabs.cc/tabs/t/trustcompany/drop_to_zero_tab.html ]
E|-------------------------------||
B|-------------------------------||
G|-------------------------------||
D|-------------------------------||
A|-------------------------------||
D|--14p13-13-14p13-13-14p13------||


Chorus
(I appologize, it is probably not very accurate... )
E|---------------------------------------------------------||
B|---------------------------------------------------------||
G|---------------------------------------------------------||
D|-6-6-6-6-6-6-6-6-/-8----10-------------------------------||
A|-4-4-4-4-4-4-4-4-/-6----8--------------------------------||
D|-4-4-4-4-4-4-4-4-/-6----8--------------------------------||

Back to this section
E|----------------------------------||
B|----------------------------------||
G|----------------------------------||
D|----------------------------------||
A|----------------------------------||
D|---8p0-0-0--8p0-0-0--8p0--8p0-10--||

To the heavy part
E|--------------------------------------------------------------------------||
B|--------------------------------------------------------------------------||
G|--------------------------------------------------------------------------||
D|--8p0-0-0--8p0-0-0---8p0-0--8p0-0-0--8p0-0-0--6-6-6-6-6-6-/-8--/-10-------||
A|--8p0-0-0--8p0-0-0---8p0-0--8p0-0-0--8p0-0-0--4-4-4-4-4-4-/-6--/-8--------||
D|--8p0-0-0--8p0-0-0---8p0-0--8p0-0-0--8p0-0-0------------------------------||

Repeat the Chorus

Outro
E|----------------------||
B|----------------------||
G|----------------------||
D|6-6-6-6-6-6-------6---||
A|4-4-4-4-4-4-----4-----||
D|-------------4-4------||

If you can fix this tab, please e-mail me the corrections at ZeroAce918@aol.com
Comments