Trustcompany - Downfall Chords & Tabs

 

Downfall Chords & Tabs

Trustcompany Chords & Tabs

Version: 6 Type: Tab 0 ratings
1 star 2 stars 3 stars 4 stars 5 stars
comments

Downfall Tab

   
-------------------------------------------------------------------------------
			     TRUST COMPANY - DOWNFALL
-------------------------------------------------------------------------------
THIS BAND HAS 2 GUITARISTS BUT THE SONG SOUNDS OK IF YOU ONLY HAVE ONE.

Drop D Tuning 
Intro 
e|-----------------------------------------------|
B|-----------------------------------------------|
G|-----------------------------------------------|
D|-222-0-2-0-2-0-22-0-2-0-2-0-22-0-2-0-2-0-22-3-3| 
A|-222-0-2-0-2-0-22-0-2-0-2-0-22-0-2-0-2-0-22-3-3|
D|-222-0-2-0-2-0-22-0-2-0-2-0-22-0-2-0-2-0-22-3-3|

Verse  (No Guitar)
[ Tab from: http://www.guitartabs.cc/tabs/t/trustcompany/downfall_tab_ver_6.html ]
Chorus
e|---------------------|
B|---------------------|
G|-8----11-----6-------|
D|-8----11-----6-----6-|
A|-6-----9-----4-----6-|
D|-------------------6-|
			(Figure out the rhythm for yourself)

Breakdown
e|-------------------------------------------|
B|-------------------------------------------|(I pm the 5's but i guess 
G|-------------------------------------------| it doesn't matter)
D|-22--5-5-5-5--2--5-5-5-5--22--5-5-5-5--0-3-|
A|-22--5-5-5-5--2--5-5-5-5--22--5-5-5-5--0-3-|
D|-22--5-5-5-5--2--5-5-5-5--22--5-5-5-5--0-3-| 
PM     .......     .......      .......

Interlude (Heavy Pt)
e|-------------------|
B|-------------------|
G|-----5-----5-----5-|
D|-0-2-5-0-2-5-0-2-5-|
A|-0-2-3-0-2-3-0-2-3-|
D|-0-2---0-2---0-2---|
Comments