Trustcompany - Downfall Chords & Tabs

 

Downfall Chords & Tabs

Trustcompany Chords & Tabs

Version: 5 Type: Tab 0 ratings
1 star 2 stars 3 stars 4 stars 5 stars
comments

Downfall Tab

-------------------------------------------------------------------------------
			     Downfall - Trust Company
-------------------------------------------------------------------------------

By:Zero

Tune down e one and the others a half step down(DbAbDbGbBbeb)
uh this sounds good to me, hope you find it good too
i suggest playing this with distortion-wah-and maybe delay...

Guitar1:intro/fill
eb|--------------------------------------------------------------------------|
Bb|--------------------------------------------------------------------------|
Gb|---------------------------------------------------------5-5-5------------|
Db|---------------------------------------------------------5-5-5------------|
Ab|---------------------------------------------------------3-3-3------------|
Db|-0-2-2-0--2-2-0-2--0-2-2-0--2-2-0-2--0-2-2-0--2-2-0-2--0------------------|
[ Tab from: http://www.guitartabs.cc/tabs/t/trustcompany/downfall_tab_ver_5.html ]
guitar 2
eb|--------------------------------------------------------------------------|
Bb|--------------------------------------------------------------------------|
Gb|--------------------------------------------------------------------------|
Db|-0-0------0-0------0-0------0-0------0-0-------2----------0---------------|
Ab|-0-0------0-0------0-0------0-0------0-0-------2----------0---------------|
Db|-0-0------0-0------0-0------0-0------0-0-------2----------0---------------|

Interlude
eb|-------------------|------------------------------------------------------|
Bb|-------------------|------------------------------------------------------|
Gb|-------------------|------------------------------------------------------|
Db|-------------------|------------------------------------------------------|
Ab|-----3-----3-----3-|------------------------------------------------------|
Db|-0-2---0-2---0-2---|-5-5-5-5-5-5-5-5--------------------------------------|

outro
eb|--------------------------------------------------------------------------|
Bb|--------------------------------------------------------------------------|
Gb|--------------------------------------------------------------------------|
Db|-2-2---------------2-2---------------2-2--------------0--3----------------|
Ab|-2-2--5-5-5-5-5-5--2-2--5-5-5-5-5-5--2-2-5-5-5-5-5-5--0--3----------------|
Db|-2-2---------------2-2---------------2-2--------------0--3----------------|


ok i think thats everything you have to know, enjoy
===============================================================================

Comments