Trustcompany - Downfall Chords & Tabs

 

Downfall Chords & Tabs

Trustcompany Chords & Tabs

Version: 1 Type: Tab 0 ratings
1 star 2 stars 3 stars 4 stars 5 stars
comments

Downfall Tab

Downfall
by TRUSTcompany
from album: The Lonely Position of Neutral
by Justin Melendez... Jabestin15@aol.com
Drop D tuning DADGBE

[ Tab from: http://www.guitartabs.cc/tabs/t/trustcompany/downfall_tab.html ]
Main Riff
---------
e----------------------------------------------
b----------------------------------------------
g----------------------------------------------
d--11-13-11-13-11-13-11-13-11-13-11-13-14------
a--11-13-11-13-11-13-11-13-11-13-11-13-14------
d--11-13-11-13-11-13-11-13-11-13-11-13-14------ 
this isnt exactly how many times you hit those frets.. it just gets
annoying to tab out the same thing over and over
Chorus
------

e-----------
b-----------
g-8-11-6----
d-8-11-6-6--
a-6-9--4-6--
d--------6--  you can figure out the rhythm.. its really simple

Bridge
------

e---------------------
b---------------------
g-----4-----4-----4---
d-1-3-4-1-1-4-1-1-4---
a-1-3-2-1-1-2-1-1-2---
d-1-3---1-1---1-1----- thats the riff.. you repeat that a few times...

theres a little riff in there somewhere from the 2nd guitar
but i only tabbed out the 1st guitar part.. it sounds fine
without it.. i play it all the time without a 2nd guitar.. 
you barely notice... this is my first tab.. enjoy..
Comments