Trustcompany - Deeper Into You Chords & Tabs

 

Deeper Into You Chords & Tabs

Trustcompany Chords & Tabs

Version: 3 Type: Tab 0 ratings
1 star 2 stars 3 stars 4 stars 5 stars
comments

Deeper Into You Tab

   
TRUSTcompany "deeper into you"
tabbed by ME 

I COPIED AND PASTED THIS AND MADE CORRECTIONS SO SOME OF THE PARTS MAY BE OUT OF ORDER
SENSE I GOT CONFUSED BY THE OTHER TAB

Drop D tuning-1/2 step down

.  _pm 
x  _stucato
b  _bend
*  _HARMONIC

Intro:
Guitar 1
eb-------------------------------------|  
Bb-------------------------------------|
Gb-------0-------0-------0-------0-----|
Db-----4-------4-------4-------4-------|
Ab--3----------------------------------|
Db----------2-------5-------0----------|

Guitar 2
eb-----------|
Bb----7-8----|
Gb--7--------|
Db-----------|
Ab-----------|
Db-----------|

Guitar 1
eb-------------------------------------|  
Bb-------------------------------------|
Gb-------0-------0-------0-------0-----|
Db-----4-------4-------4-------4-------|
Ab--3----------------------------------|
Db----------2-------5-------0----------|

Guitar 2
eb---------------------| only pick the first one 
Bb--7b-7b-7b-7b--------|
Gb---------------------|
Db---------------------|
Ab---------------------|
Db---------------------|

Guitar 1 
eb-----||----||----||----|
Bb-----||----||----||----|
Gb-----||----||----||----|
Db--10-||--2-||--5-||--0-|
Ab--10-||--2-||--5-||--0-|
Db--10-||--2-||--5-||--0-|

Guitar 2
eb------15-17-------15-17------15-17--------------------------|
Bb--19*---------19*--------19*--------19*-------------19*-----|
Gb----------------------------------------19*-----19*-----19*-|
Db--------------------------------------------19*-------------|
Ab------------------------------------------------------------|
Db------------------------------------------------------------|

Guitar 1 			
eb----------|
Bb----------|
Gb-x-x-x-x--|????
Db-x-x-x-x--|
Ab-x-x-x-x--|
Db----------|
[ Tab from: http://www.guitartabs.cc/tabs/t/trustcompany/deeper_into_you_tab_ver_3.html ]
				
Guitar 1 							
eb--------------------||----------||eb-------------------||----------------|
Bb--------------------||----------||Bb-------------------||----------------|
Gb---------4----------||----------||Gb--------4----------||----------------|
Db---0--2--4--2--0--2-||-x-x-x-x--||Db--0--2--4--2--0--2-||-3*-3*-3*-3*----|
Ab---0--2--2--2--0--2-||-x-x-x-x--||Ab--0--2--2--2--0--2-||-3*-3*-3*-3*----|
Db---0--2-----2--0--2-||-x-x-x-x--||Db--0--2-----2--0--2-||-3*-3*-3*-3*----|
                
							   
Verse:
eb-----------------------------------------------------------|
Bb-----------------------------------------------------------|
Gb-----------------------------------------------------------|
Db--2-2--2-2--2-2--10-10-10-10-10-10--0-0--2-2--2-2--2-2--0--|
Ab--2-2--2-2--2-2--10-10-10-10-10-10--0-0--2-2--2-2--2-2--0--|
Db--2-2--2-2--2-2--10-10-10-10-10-10--0-0--2-2--2-2--2-2--0--|

Guitar 2
eb-----------------------------------------|
Bb-----------------------------------------|
Gb-----------------------------------------|
Db-----------------------------------------|
Ab--9999--10101010--9999--7777----9999--10101010--9999-------|
Db-------------------------------------------------------12121212-|
  pmиииииииииииииииииииииииииииии.........quick  picking
   

eb------------------|
Bb------------------|
Gb------------------|
Db--2-2-x2-x2-2-----|
Ab--2-2-x2-x2-2-----|
Db--2-2-x2-x2-2-----|


Guitar 2
eb------15-17-------15-17------15-17--------------------------|
Bb--19*---------19*--------19*--------19*-------------19*-----|
Gb----------------------------------------19*-----19*-----19*-|
Db--------------------------------------------19*-------------|
Ab------------------------------------------------------------|
Db------------------------------------------------------------|



Outro 
eb------------------|
Bb------------------|
Gb------------------|6x
Db--2-2-x2-x2-2-----|
Ab--2-2-x2-x2-2-----|
Db--2-2-x2-x2-2-----|

SOME PEOPLE MAKE PLAYING THIS SONG JUST TO HARD
Comments