Trust Company - Running From Me Chords & Tabs

 

Running From Me Chords & Tabs

Trust Company Chords & Tabs

Version: 1 Type: Tab 0 ratings
1 star 2 stars 3 stars 4 stars 5 stars
comments

Running From Me Tab

Title:Running From Me
Artist:TRUSTcompany
Tabbed by Mike
The tuning for this is kinda weird it’s just like drop d but one more fret down.
C#ADGBE

Repeat 3 times(intro)PT1             This is palm muted
E---------------------------------
B---------------------------------
G---------------------------------
D---------------------------------
A--------2--4----4-----2--4----
C#---0--------0----0------------


THEN(intro/chorus)PT2                This is palm muted
E-------------------------------------------
B-------------------------------------------
G-------------------------------------------
D-------------------------------------------
A-----2--4---2--4---2--4---2--4---2--4--2--4
C#--2------2-----2-------2------2-----2-----

THEN(intro/chorus) PT3                This is palm muted
E-------------------------------------------
B-------------------------------------------
G-------------------------------------------
D-------------------------------------------
A-----2--4---2--4---2--4---2--4---2--4--2--4
C#--1------1-----1-------1------1-----1-----

[ Tab from: http://www.guitartabs.cc/tabs/t/trust_company/running_from_me_tab.html ]
THEN(intro/chorus) PT4
E--------------------------------------------------------------------------------------
B--------------------------------------------------------------------------------------
G--------------------------------------------------------------------------------------
D--------------------------------------------------------------------------------------
A----(6---4---4---4---4---4)-----------7-7-7-7-7-7-7-7—6-6-6-6-6-6-6-6-
C#--(4---2---6---6---2---6)------------8-8-8-8-8-8-8-8—7-7-7-7-7-7-7-7-
    (     repeat four times    )
VERSE
E----------------------------------------------
B----------------------------------------------
G----------------------------------------------
D-----6----------------------------------------
A-----4--------7-------4---------7-----------
C#-------------8-------5--------8------------

THEN PLAY INTRO/CHORUS PT4

THEN PLAY INTRO PART 1

THEN PLAY THIS 3 TIMES
E--------------------------------------------------------------------------------------
B--------------------------------------------------------------------------------------
G--------------------------------------------------------------------------------------
D--------------------------------------------------------------------------------------
A----6---4---6---6---4---6---6---4---6-----7-
C#--4---2---4---4---2---4---4---2---4-----8-

This tab was created by Mike. Email me and tell me what you think: mike_the_milk_man@yahoo.com
Comments