Truefaith - Kung Ok Lang Sayo Chords & Tabs

 

Kung Ok Lang Sayo Chords & Tabs

Truefaith Chords & Tabs

Version: 1 Type: Chords 0 ratings
1 star 2 stars 3 stars 4 stars 5 stars
comments

Kung Ok Lang Sayo Chords

   
Kung ok lang sau
True Faith
Tab by: Walter Michael De la Cruz - SLU Baguio City - 09275823252

Chords used:

        E                   AM7              G#m7           C#m7
  |-----0-----|        |----0-----|       |----4----|     |----4----|
  |-----0-----|        |----2-----|       |----4----|     |----5----|
  |-----1-----|        |----1-----|       |----4----|     |----4----|
  |-----2-----|        |----2-----|       |----4----|     |----6----|
  |-----2-----|        |----0-----|       |----6----|     |----4----|
  |-----0-----|        |----X-----|       |----4----|     |----X----|

        F#m                 B                  A        
  |-----2-----|        |----2-----|       |----5----|  
  |-----2-----|        |----4-----|       |----5----|     
  |-----2-----|        |----4-----|       |----6----|    
  |-----4-----|        |----4-----|       |----7----|     
  |-----4-----|        |----2-----|       |----7----|   
  |-----2-----|        |----X-----|       |----5----|   

Note: This song rocks! wala lng maganda ung lyrics and pwede pang harana try nyo....
         At siguradong sasagutin kayo         
[ Tab from: http://www.guitartabs.cc/tabs/t/truefaith/kung_ok_lang_sayo_crd.html ]
Verse1:
         
           E               AM7            
Hindi malaman kung ano ang gagawin

           E              AM7
Sa damdamin na di ko maamin

      G#m7      C#m7                 F#m-B
Sa sarili, kung bakit ka pa ba nandyan oohhh...

          E           AM7
Sabi sabi ng mga kaibigan ko

                 E
Na wag ng pilitin

          AM7
Kung hindi para sa'yo

         G#m7    C#m7           F#m
Kung bakit hindi kita makalimutan 

   B
Sa'yo ba ok lang


Chorus:

                 A                   G#m7
Habang tumatagal lumala lalong nagwawala
 
         A                    G#m7
Tumitindi, umiinit, sumasakit ang dibdib

           A  
Kaya't ako'y gumawa ng awiting ito 

      G#m7
Na alay ko sau

     F#m              B
Sana'y pakinggan mo


Verse 2: (Do verse 1 chords)


Huwag na sana magugulat skin
Di ako sanay sa ganitong suliranin
Wag kang matakot di ako manloloko
Kung ok lang sau


Send me a message in friendster or email me at Walterfdelacruz@yahoo.com. 
                                You are greatly welcome to invite me in friendster. :)
Comments