True Renegade - What Is A Memory Chords & Tabs

 

What Is A Memory Chords & Tabs

True Renegade Chords & Tabs

Version: 2 Type: Tab 0 ratings
1 star 2 stars 3 stars 4 stars 5 stars
comments

What Is A Memory Tab

Title: 		What is a Memory
Band: 		Tru Renegade
Album:		(Not A Cd)
Words:		go ask some one!
Music:		Stu Chapman (stroodite@hotmail.com)
Transcribed By:	"
My Email:	stroodite@Hotmail.com
Parts:		Hey. PLay about with it. Its ojnly a rough guide. Change it 2 suit your voice.
Missing:	my sanity...oh the song er.....whatever els you want


E|--0-------5------------------------------------------------|  strum gently at each 4th. Let it ring with
B|--2---2---7---5--------------------------------------------|
G|--2---4---7---7--------------------------------------------|
D|------4-------7--------------------------------------------|
A|-----------------------------------------------------------|
E|-----------------------------------------------------------|
[ Tab from: http://www.guitartabs.cc/tabs/t/true_renegade/what_is_a_memory_tab_ver_2.html ]
E|--000000000000------------------555555555555---------------  p/m each note except the 3rd 6th 9th and 12th--|
B|--222222222222---222222222222---777777777777---555555555555-------------------------------------------------|
G|--222222222222---444444444444---777777777777---777777777777-------------------------------------------------|
D|-----------------444444444444------------------777777777777-------------------------------------------------|
A|------------------------------------------------------------------------------------------------------------|
E|------------------------------------------------------------------------------------------------------------|

E|-----------------------------------------------------------|
B|-----------------------------------------------------------|
G|------SAME AS ABOVE (NO PALM MUTTING PLAY OPEN!!!)---------|
D|-----------(REALLY FAST STRUMMING!!!)----------------------|
A|-----------------------------------------------------------|
E|-----------------------------------------------------------|

E|-----------------------------------------------------------|  solo
B|-----------------------------------------------------------|
G|-----------------------------------------------------------|  (play as fast as you want 
any notes)
D|-----------------------------------------------------------|
A|--7-7-7h9---------------------------9-7-5-5-5-5h7----------|
E|----------7h9p7-7h9p7-7h9p7-7h9p7-----------------5h7p5----|

E|-----------------------------------------------------------|
B|-----------------------------------------------------------|
G|-----------------------------------------------------------|
D|-----------------------------------------------------------|
A|-------------------7-5-------------------------------------|
E|-5h7p5-5h7p5-5h7p5-----------------------------------------|
Comments