Troll - Trollberg Chords & Tabs

 

Trollberg Chords & Tabs

Troll Chords & Tabs

Version: 1 Type: Tab 0 ratings
1 star 2 stars 3 stars 4 stars 5 stars
comments

Trollberg Tab

Troll - Trollberg (4th track off the "Drep de Kristne" album)

(Note: This song is keyboard/vocal only but since the melody is rather
epic and folkish, it's quite fun playing it on the guitar)

You'll have to work out the order of the riffs yourselves, I've got a
life. 

Transcribed by Fredrik Karlsson (Battlescar_psy@hotmail.com)

Riff 1
E[-------------------------------------------------------------------------]
B[-------------------------------------------------------------------------]
G[------------9-9-8-9------------------------------------------------------]
D[--------7-9---------9-10-9-7-10-9-7--------------------------------------]
A[-7-9-10-----------------------------10-9-7-6-----------------------------]
E[---------------------------------------------7---------------------------]

E[-------------------------------------------------------------------------]
B[-------------------------------------------------------------------------]
G[------------9-9-8-9------------------------------------------------------]
D[--------7-9---------9-10-9-7---------------------------------------------]
A[-7-9-10----------------------10-10-9-6-10-7------------------------------]
E[-------------------------------------------------------------------------]

Riff 2
E[-------------------------------------------------------------------------]
B[-------------------------------------------------------------------------]
G[--------------10-10-9-10-------------------------------------------------]
D[---------8-10------------10-11-10-8-11-10-8------------------------------]
A[-8-10-11------------------------------------11-10-8-7--------------------]
E[------------------------------------------------------8------------------]
[ Tab from: http://www.guitartabs.cc/tabs/t/troll/trollberg_tab.html ]
E[-------------------------------------------------------------------------]
B[-------------------------------------------------------------------------]
G[--------------10-10-9-10-------------------------------------------------]
D[---------8-10------------10-11-10-8--------------------------------------]
A[-8-10-11----------------------------11-11-10-7-11-8----------------------]
E[-------------------------------------------------------------------------]

Riff 3
E[-------------------------------------------------------------------------]
B[-------------------------------------------------------------------------]
G[-------------------------------------------------------------------------]
D[------------------7-9-9-9-10-9-9-10-10-10-9-7-7-7-9-10-10-10-12-10-9-10--]
A[-7-7-7-9-10-10-10--------------------------------------------------------]
E[-------------------------------------------------------------------------]

Riff 4
E[-------------------------------------------------------------------------]
B[-------------------------------------------------------------------------]
G[-------------------------------------------------------------------------]
D[-9---13-12---------------------------------------------------------------]
A[-7-9-11-10---------------------------------------------------------------]
E[---7---------------------------------------------------------------------]

Riff 5
E[-----------------------|-------------------------------------------------]
B[-----------------------|-------------------------------------------------]
G[-----------------------|-------------------------------------------------]
D[-----------------------|-------------------------------------------------]
A[-9-10-7-9-10-12-10-9-7-|-9-10-7-9-10-12-10-9-7-6-7-----------------------]
E[-----------------------|-------------------------------------------------]

Riff 6
E[-------------------------------------------------------------------------]
B[-------------------------------------------------------------------------]
G[-------------------------------------------------------------------------]
D[-------------------------------------------------------------------------]
A[-9-10-9-10-9-9-10-9-10-9-9-10-9-10-9-10-9-10-9-10------------------------]
E[-------------------------------------------------------------------------]
Comments