Troll - Naar Natten Endelig Er Her Chords & Tabs

 

Naar Natten Endelig Er Her Chords & Tabs

Troll Chords & Tabs

Version: 1 Type: Tab 0 ratings
1 star 2 stars 3 stars 4 stars 5 stars
comments

Naar Natten Endelig Er Her Tab

Artist: Troll
Title: Naar natten endelig er her
Album: Trollstorm over Nidinggjuv

Tabbed by elc (elc@o2.pl;elc@poczta.onet.pl)

Lots of distortion + tremolo picking all the song

Riff 1, actually played by keyboard but who cares
e|-----------------------------------------------------------------|
B|-----------------------------------------------------------------|
G|-----------------------------------------------------------------|
D|-----------------------------------------------------------------|
A|-----14----------17--15----------12--14--------------------------|
E|-12----------------------------------------------1---0-----------|

e|-----------------------------------------------------------------|
B|-----------------------------------------------------------------|
G|-----------------------------------------------------------------|
D|-----------------------------------------------------------------|
A|-----14----------17--15----------17--14--------------------------|
E|-12----------------------------------------------1---0-----------|

e|-----------------------------------------------------------------|
B|-----------------------------------------------------------------|
G|-----------------------------------------------------------------|
D|-----------------------------------------------------------------|
A|-----14----------17--16------------14\12/14----------------------|
E|-12--------------------------------------------------------------|

e|-----------------------------------------------------------------|
B|-----------------------------------------------------------------|
G|-----------------------------------------------------------------|
D|-----------------------------------------------------------------|
A|-----14----------17--16----1719----14\12/14----------------------|
E|-12--------------------------------------------------------------|

Riff 2
Guitar 1
e|-----------------------------------------------------------------|
B|-----------------------------------------------------------------|
G|-----------------3-----------------------------------------------|
D|-2---------------3---------------4---------------5---------------|
A|-2---------------1---------------4---------------5---------------|
E|-0-------------------------------2---------------3---------------|
Guitar 2
e|-----------------------------------------------------------------|
B|-----------------------------------------------------------------|
G|-9---------------10----------------------------------------------|
D|---------------------------------11--------------12--------------|
A|-----------------------------------------------------------------|
E|-----------------------------------------------------------------|
[ Tab from: http://www.guitartabs.cc/tabs/t/troll/naar_natten_endelig_er_her_tab.html ]
Guitar 1
e|-----------------------------------------------------------------|
B|-----------------------------------------------------------------|
G|-9---------------15--------------11--------------12--------------|
D|-9---------------15--------------11--------------12--------------|
A|-7---------------13--------------9---------------10--------------|
E|-0---------------------------------------------------------------|
Guitar 2
e|-----------------------------------------------------------------|
B|-----------------------------------------------------------------|
G|-9---------------10--------------11--------------12--------------|
D|-----------------------------------------------------------------|
A|-----------------------------------------------------------------|
E|-----------------------------------------------------------------|

Riff 3
Guitar 1
e|-----------------------------------------------------------------|
B|-----------------------------------------------------------------|
G|-9-------------------------------9-------------------------------|
D|-9---------------10--------------9---------------10--------------|
A|-7---------------10--------------7---------------10--------------|
E|-0---------------8---------------0---------------8---------------|
Guitar 2
e|-----------------------------------------------------------------|
B|-----------------------------------------------------------------|
G|-9---------------8---------------9---------------11------12------|
D|-----------------------------------------------------------------|
A|-----------------------------------------------------------------|
E|-----------------------------------------------------------------|

Guitar 1
e|-----------------------------------------------------------------|
B|-----------------------------------------------------------------|
G|-9-------------------------------9-------------------------------|
D|-9---------------10--------------9---------------10--------------|
A|-7---------------10--------------7---------------10--------------|
E|-0---------------8---------------0---------------8---------------|
Guitar 2
e|-----------------------------------------------------------------|
B|-----------------------------------------------------------------|
G|-9---------------8---------------9---------------12------11------|
D|-----------------------------------------------------------------|
A|-----------------------------------------------------------------|
E|-----------------------------------------------------------------|

Riff 4
e|-----------------------------------------------------------------|
B|-----------------------------------------------------------------|
G|-9---------------9---------------8---------------8-------5-------|
D|-9---------------9---------------8---------------8-------5-------|
A|-7---------------7---------------6---------------6-------3-------|
E|-----------------------------------------------------------------|

e|-----------------------------------------------------------------|
B|-----------------------------------------------------------------|
G|-9---------------9---------------8---------------8-------5-------|
D|-9---------------9---------------8---------------8-------5-------|
A|-7---------------7---------------6---------------6-------3-------|
E|-----------------------------------------------------------------|

e|-----------------------------------------------------------------|
B|-----------------------------------------------------------------|
G|-9---------------9---------------8---------------8---------------|
D|-9---------------9---------------8---------------8---------------|
A|-7---------------7---------------6---------------6---------------|
E|-----------------------------------------------------------------|

e|-----------------------------------------------------------------|
B|-----------------------------------------------------------------|
G|-5---------------5---------------8---------------8---------------|
D|-5---------------5---------------8---------------8---------------|
A|-3---------------3---------------6---------------6---------------|
E|-----------------------------------------------------------------|
Comments