Troggs - With A Girl Like You Chords & Tabs

 

With A Girl Like You Chords & Tabs

Troggs Chords & Tabs

Version: 1 Type: Tab 0 ratings
1 star 2 stars 3 stars 4 stars 5 stars
comments

With A Girl Like You Tab

--------------------------------------
The Troggs - With a girl like you
--------------------------------------

tabbed by: Bandit600
email: g.c.s.@gmx.net

note: distortioned guitar is used
                                                                          
E||--------------8---------|-------3--------------|--1--------------3----|
B||--------------8---------|-------3--------------|--1--------------3----|
G||--------------9---------|-------4--------------|--2--------------4----|
D||--10----10---------5----|--5---------3----3----|-------5----5---------|
A||--10----10---------5----|--5---------3----3----|-------5----5---------|
E||--8-----8----------3----|--3---------1----1----|-------3----3---------|

[ Tab from: http://www.guitartabs.cc/tabs/t/troggs/with_a_girl_like_you_tab.html ]
                           4x                                              
|--------------------------||----------------------|----------------------|
|--------------------------||----------------------|----------------------|
|*------------------------*||----------------------|----------------------|
|*--10----10----5----5----*||--3----3----3----5----|--5----3----3----3----|
|---10----10----5----5-----||--3----3----3----5----|--5----3----3----3----|
|---8-----8-----3----3-----||--1----1----1----3----|--3----1----1----1----|


              
------------||
------------||
------------||
--5----5----||
--5----5----||
--3----3----||


I hope that this is close to the original.
Greetings go out to MoaG2000, D3rUni, ... and all the people who like me ....
Comments