Troggs - Wild Thing Chords & Tabs

 

Wild Thing Chords & Tabs

Troggs Chords & Tabs

Version: 5 Type: Tab 0 ratings
1 star 2 stars 3 stars 4 stars 5 stars
comments

Wild Thing Tab

   
THIS IS A very simplified version of the song, if you are advanced then dont even try this.
Both Guitars Heavily Distorted!

Guitar One:
|-----------||------------------------------|
|-2--fb--br-||------------------------------|
|-----------||------------------------------|
|-----------||-----x-x-----x-x--------------|
|-----------||-----x-x-----x-x--------------|
|-----------||-0-0-x-x-5-5-x-x-7-7-7-7--7-7-|

|-----------------------------|
|-----------------------------|
|-----------------------------|
|-----x-x-----x-x-----x-x-----|x3
|-----x-x-----x-x-----x-x-----|
|-0-0-x-x-5-5-x-x-7-7-x-x-5-5-|
 Wild thing           You make
 my heart sing        You make
 everything groovy
|------------------------------|
|------------------------------|
|------------------------------|
|-----x-x-----x-x--------------|
|-----x-x-----x-x--------------|
|-0-0-x-x-5-5-x-x-7-7-7-7--7-7-|
 Wild thing

|------------|-------------------------------|
|------------|-------------------------------|
|------------|-------------------------------|
|-0--2--0--2-|-------------------------------|x4
|-0--2--0--2-|-------------------------------|
|-0--0--0--0-|-------------------------------|
	      Wild thing, I think I love you
	      But I wanna know for sure
	      Come on and hold me tight
              I love you

|-----------------------------|
|-----------------------------|
|-----------------------------|
|-----x-x-----x-x-----x-x-----|x2
|-----x-x-----x-x-----x-x-----|
|-0-0-x-x-5-5-x-x-7-7-x-x-5-5-|

|-----------------------------|
|-----------------------------|
|-----------------------------|
|-----x-x-----x-x-----x-x-----|x3
|-----x-x-----x-x-----x-x-----|
|-0-0-x-x-5-5-x-x-7-7-x-x-5-5-|
 Wild thing           You make
 my heart sing        You make
 everything groovy
|------------------------------|
|------------------------------|
|------------------------------|
|-----x-x-----x-x--------------|
|-----x-x-----x-x--------------|
|-0-0-x-x-5-5-x-x-7-7-7-7--7-7-|
 Wild thing

Guitar Solo - Guitar Two
|-------------------------------------------------------------|
|-12-15-12--15--15--12-15-15--15--12-15-12--------------------|dunno this bit...
|-------------------------------------------------------------|
|-------------------------------------------------------------|
|-------------------------------------------------------------|
|-------------------------------------------------------------|
[ Tab from: http://www.guitartabs.cc/tabs/t/troggs/wild_thing_tab_ver_5.html ]
|------------------------------------------------------------------------|
|-17ph15ph12-15-12--17ph15ph12-15-12--17ph15ph12-15-12--17ph15ph12-15-12-|
|------------------------------------------------------------------------|
|------------------------------------------------------------------------|
|------------------------------------------------------------------------|
|------------------------------------------------------------------------|

|-----------------------------------------|
|-17br-15-17-15-17--15-17-15-12-hold note-|
|-----------------------------------------|
|-----------------------------------------|
|-----------------------------------------|
|-----------------------------------------|

Solo Backing - Guitar One
|-----------------------------|  |-------------------------------|
|-----------------------------|  |-------------------------------|
|-----------------------------|  |-------------------------------|
|-----x-x-----x-x-----x-x-----|x3|------x-x-----x-x--------------|
|-----x-x-----x-x-----x-x-----|  |------x-x-----x-x--------------|
|-0-0-x-x-5-5-x-x-7-7-x-x-5-5-|  |--0-0-x-x-5-5-x-x-7-7-7-7--7-7-|

Guitar One
|------------|-------------------------------|
|------------|-------------------------------|
|------------|-------------------------------|
|-0--2--0--2-|-------------------------------|x4
|-0--2--0--2-|-------------------------------|
|-0--0--0--0-|-------------------------------|
	      Wild thing, I think you move me
	      But I wanna know for sure
	      So c'mon and hold me tight
	      You move me
|--------------------------------|
|--------------------------------|
|--------------------------------|
|-----x-x-----x-x-----x-x--------|
|-----x-x-----x-x-----x-x--------|
|-0-0-x-x--5-5-x-x-7-7-x-x-5-5---|

|-----------------||--------------|  |---------------|
|-----------------||--------------|  |---------------|
|-----------------||--------------|  |---------------|
|-----x-x-----x-x-||--------------|x3|---------------|
|-----x-x-----x-x-||--------------|  |---------------|
|-0-0-x-x-5-5-x-x-||-7-7-7-7--7-7-|  |-7-7-7-7-7-7-7-|

|-----------------------------|
|-----------------------------|
|-----------------------------|
|-----x-x-----x-x-----x-x-----|x8
|-----x-x-----x-x-----x-x-----|
|-0-0-x-x-5-5-x-x-7-7-x-x-5-5-|
 Wild thing           You make
 my heart sing        You make
 everything groovy
 Wild Thing
                      C'mon, C'mon,
 Wild thing
                      Shake it, shake it,
 Wild thing

To End - Guitar One
|---------------------|
|---------------------|
|---------------------|
|-0--2--0--2-let ring-|
|-0--2--0--2----------|
|-0--0--0--0----------|
Comments