Troggs - Wild Thing Chords & Tabs

 

Wild Thing Chords & Tabs

Troggs Chords & Tabs

Version: 4 Type: Tab 0 ratings
1 star 2 stars 3 stars 4 stars 5 stars
comments

Wild Thing Tab

   
Title: Wild Thing 
Artist: The Troggs
Tabbed by:Darian
Email:scotty__13@hotmail.com

Tuning:Standard(EADGBe)
Guitar 1: Clean Electric

Intro
e|------------------------------------------------------------------------|
B|------------------------------------------------------------------------|
G|----------7-7------9-9------7-7---------------7-7------9-9------7-7-7-7-|
D|-7-7------7-7-xxxx-9-9-xxxx-7-7-xxxx-7-7------7-7-xxxx-9-9-xxxx-7-7-7-7-|X2
A|-7-7-xxxx-5-5-xxxx-7-7-xxxx-5-5-xxxx-7-7-xxxx-5-5-xxxx-7-7-xxxx-5-5-5-5-|
E|-5-5-xxxx----------------------------5-5-xxxx---------------------------|

Verse
e|------------------------------------------------------------------------|
B|------------------------------------------------------------------------|
G|----------7-7------9-9------7-7---------------7-7------9-9------7-7-7-7-|
D|-7-7------7-7-xxxx-9-9-xxxx-7-7-xxxx-7-7------7-7-xxxx-9-9-xxxx-7-7-7-7-|X2
A|-7-7-xxxx-5-5-xxxx-7-7-xxxx-5-5-xxxx-7-7-xxxx-5-5-xxxx-7-7-xxxx-5-5-5-5-|
E|-5-5-xxxx----------------------------5-5-xxxx---------------------------|
   Wild thing                  You make my heart sing
   You make everything groovy  Wild thing
   
(no guitar)
Wild thing, I think I love you

Interlude
e|--------------------------------------------------------|
B|--------------------------------------------------------|
G|-7-9-7-----------------------7-9-7----------------------|
D|-7-9-7-7---------------------7-9-7-7--------------------|
A|-5-7-5-7~--------------------5-7-5-7~-------------------|
E|-------5~--------------------------5~-------------------|
   But I wanna know for sure   Come on and hold me tight   I love you

Verse
e|------------------------------------------------------------------------|
B|------------------------------------------------------------------------|
G|----------7-7------9-9------7-7---------------7-7------9-9------7-7-7-7-|
D|-7-7------7-7-xxxx-9-9-xxxx-7-7-xxxx-7-7------7-7-xxxx-9-9-xxxx-7-7-7-7-|X2
A|-7-7-xxxx-5-5-xxxx-7-7-xxxx-5-5-xxxx-7-7-xxxx-5-5-xxxx-7-7-xxxx-5-5-5-5-|
E|-5-5-xxxx----------------------------5-5-xxxx---------------------------|
[ Tab from: http://www.guitartabs.cc/tabs/t/troggs/wild_thing_tab_ver_4.html ]
e|------------------------------------------------------------------------|
B|------------------------------------------------------------------------|
G|----------7-7------9-9------7-7---------------7-7------9-9------7-7-7-7-|
D|-7-7------7-7-xxxx-9-9-xxxx-7-7-xxxx-7-7------7-7-xxxx-9-9-xxxx-7-7-7-7-|X2
A|-7-7-xxxx-5-5-xxxx-7-7-xxxx-5-5-xxxx-7-7-xxxx-5-5-xxxx-7-7-xxxx-5-5-5-5-|
E|-5-5-xxxx----------------------------5-5-xxxx---------------------------|
   Wild thing                  You make my heart sing
   You make everything groovy  Wild thing

(no guitar)
Wild thing, I think you move me

Interlude
e|--------------------------------------------------------|
B|--------------------------------------------------------|
G|-7-9-7-----------------------7-9-7----------------------|
D|-7-9-7-7---------------------7-9-7-7--------------------|
A|-5-7-5-7~--------------------5-7-5-7~-------------------|
E|-------5~--------------------------5~-------------------|
   But I wanna know for sure   So c'mon and hold me tight  You move me

Verse
e|------------------------------------------------------------------------|
B|------------------------------------------------------------------------|
G|----------7-7------9-9------7-7---------------7-7------9-9------7-7-7-7-|
D|-7-7------7-7-xxxx-9-9-xxxx-7-7-xxxx-7-7------7-7-xxxx-9-9-xxxx-7-7-7-7-|X2
A|-7-7-xxxx-5-5-xxxx-7-7-xxxx-5-5-xxxx-7-7-xxxx-5-5-xxxx-7-7-xxxx-5-5-5-5-|
E|-5-5-xxxx----------------------------5-5-xxxx---------------------------|

e|------------------------------------------------------------------------|
B|------------------------------------------------------------------------|
G|----------7-7------9-9------7-7---------------7-7------9-9------7-7-7-7-|
D|-7-7------7-7-xxxx-9-9-xxxx-7-7-xxxx-7-7------7-7-xxxx-9-9-xxxx-7-7-7-7-|X2
A|-7-7-xxxx-5-5-xxxx-7-7-xxxx-5-5-xxxx-7-7-xxxx-5-5-xxxx-7-7-xxxx-5-5-5-5-|
E|-5-5-xxxx----------------------------5-5-xxxx---------------------------|
   Wild thing                  You make my heart sing
   You make everything groovy  Wild thing

Outro(fade out)
e|------------------------------------------------------------------------|
B|------------------------------------------------------------------------|
G|----------7-7------9-9------7-7---------------7-7------9-9------7-7-7-7-|
D|-7-7------7-7-xxxx-9-9-xxxx-7-7-xxxx-7-7------7-7-xxxx-9-9-xxxx-7-7-7-7-|X2
A|-7-7-xxxx-5-5-xxxx-7-7-xxxx-5-5-xxxx-7-7-xxxx-5-5-xxxx-7-7-xxxx-5-5-5-5-|
E|-5-5-xxxx----------------------------5-5-xxxx---------------------------|
   Wild thing C'mon, c'mon, wild thing Shake it shake it, wild thing 

| /  slide up
| \  slide down
| h  hammer-on
| p  pull-off
| ~  vibrato
| +  harmonic
| x  Mute note
=============================================================================
Comments