Troggs - Wild Thing Chords & Tabs

 

Wild Thing Chords & Tabs

Troggs Chords & Tabs

Version: 3 Type: Tab 0 ratings
1 star 2 stars 3 stars 4 stars 5 stars
comments

Wild Thing Tab

   
Artist: The Troggs
Track: Wild Thing

This is all the timing, structure, lyrics and the solo transcribed
into guitar although it ain't right it still sorta sounds like it... enjoy...

Both Guitars Heavily Distorted!

Guitar One:
|-----------||------------------------------|
|-2--fb--br-||------------------------------|
|-----------||------------------------------|
|-----------||-2-2-x-x-7-7-x-x-9-9-9-9--9-9-|
|-----------||-2-2-x-x-7-7-x-x-9-9-9-9--9-9-|
|-----------||-0-0-x-x-5-5-x-x-7-7-7-7--7-7-|

|-----------------------------|
|-----------------------------|
|-----------------------------|
|-2-2-x-x-7-7-x-x-9-9-x-x-7-7-|x3
|-2-2-x-x-7-7-x-x-9-9-x-x-7-7-|
|-0-0-x-x-5-5-x-x-7-7-x-x-5-5-|
 Wild thing           You make
 my heart sing        You make
 everything groovy
|------------------------------|
|------------------------------|
|------------------------------|
|-2-2-x-x-7-7-x-x-9-9-9-9--9-9-|
|-2-2-x-x-7-7-x-x-9-9-9-9--9-9-|
|-0-0-x-x-5-5-x-x-7-7-7-7--7-7-|
 Wild thing

|------------|-------------------------------|
|------------|-------------------------------|
|------------|-------------------------------|
|-0--2--0--2-|-------------------------------|x4
|-0--2--0--2-|-------------------------------|
|-0--0--0--0-|-------------------------------|
	      Wild thing, I think I love you
	      But I wanna know for sure
	      Come on and hold me tight
              I love you

|-----------------------------|
|-----------------------------|
|-----------------------------|
|-2-2-x-x-7-7-x-x-9-9-x-x-7-7-|x2
|-2-2-x-x-7-7-x-x-9-9-x-x-7-7-|
|-0-0-x-x-5-5-x-x-7-7-x-x-5-5-|

|-----------------------------|
|-----------------------------|
|-----------------------------|
|-2-2-x-x-7-7-x-x-9-9-x-x-7-7-|x3
|-2-2-x-x-7-7-x-x-9-9-x-x-7-7-|
|-0-0-x-x-5-5-x-x-7-7-x-x-5-5-|
 Wild thing           You make
 my heart sing        You make
 everything groovy
|------------------------------|
|------------------------------|
|------------------------------|
|-2-2-x-x-7-7-x-x-9-9-9-9--9-9-|
|-2-2-x-x-7-7-x-x-9-9-9-9--9-9-|
|-0-0-x-x-5-5-x-x-7-7-7-7--7-7-|
 Wild thing

Guitar Solo - Guitar Two
|------------------------------------------------------------
|-12-15-12--15--15--12-15-15--15--12-15-12--dunno this bit...
|-----------------------------------------------------------
|------------------------------------------------------------
|-----------------------------------------------------------
|----------------------------------------------------------
[ Tab from: http://www.guitartabs.cc/tabs/t/troggs/wild_thing_tab_ver_3.html ]
|------------------------------------------------------------------------|
|-17ph15ph12-15-12--17ph15ph12-15-12--17ph15ph12-15-12--17ph15ph12-15-12-|
|------------------------------------------------------------------------|
|------------------------------------------------------------------------|
|------------------------------------------------------------------------|
|------------------------------------------------------------------------|

|-----------------------------------------|
|-17br-15-17-15-17--15-17-15-12-hold note-|
|-----------------------------------------|
|-----------------------------------------|
|-----------------------------------------|
|-----------------------------------------|

Solo Backing - Guitar One
|-----------------------------|  |-------------------------------|
|-----------------------------|  |-------------------------------|
|-----------------------------|  |-------------------------------|
|-2-2-x-x-7-7-x-x-9-9-x-x-7-7-|x3|--2-2-x-x-7-7-x-x-9-9-9-9--9-9-|
|-2-2-x-x-7-7-x-x-9-9-x-x-7-7-|  |--2-2-x-x-7-7-x-x-9-9-9-9--9-9-|
|-0-0-x-x-5-5-x-x-7-7-x-x-5-5-|  |--0-0-x-x-5-5-x-x-7-7-7-7--7-7-|

Guitar One
|------------|-------------------------------|
|------------|-------------------------------|
|------------|-------------------------------|
|-0--2--0--2-|-------------------------------|x4
|-0--2--0--2-|-------------------------------|
|-0--0--0--0-|-------------------------------|
	      Wild thing, I think you move me
	      But I wanna know for sure
	      So c'mon and hold me tight
	      You move me
|-----------------------------|
|-----------------------------|
|-----------------------------|
|-2-2-x-x-7-7-x-x-9-9-x-x-7-7-|
|-2-2-x-x-7-7-x-x-9-9-x-x-7-7-|
|-0-0-x-x-5-5-x-x-7-7-x-x-5-5-|

|-----------------||--------------|  |---------------|
|-----------------||--------------|  |---------------|
|-----------------||--------------|  |---------------|
|-2-2-x-x-7-7-x-x-||-9-9-9-9--9-9-|x3|-9-9-9-9-9-9-9-|
|-2-2-x-x-7-7-x-x-||-9-9-9-9--9-9-|  |-9-9-9-9-9-9-9-|
|-0-0-x-x-5-5-x-x-||-7-7-7-7--7-7-|  |-7-7-7-7-7-7-7-|

|-----------------------------|
|-----------------------------|
|-----------------------------|
|-2-2-x-x-7-7-x-x-9-9-x-x-7-7-|x8
|-2-2-x-x-7-7-x-x-9-9-x-x-7-7-|
|-0-0-x-x-5-5-x-x-7-7-x-x-5-5-|
 Wild thing           You make
 my heart sing        You make
 everything groovy
 Wild Thing
                      C'mon, C'mon,
 Wild thing
                      Shake it, shake it,
 Wild thing

To End - Guitar One
|---------------------|
|---------------------|
|---------------------|
|-0--2--0--2-let ring-|
|-0--2--0--2----------|
|-0--0--0--0----------|

 Remember this is Wild Thing done with a kinda 80's Metallica edge to it, thats
why its in power chords so put alot of distortion and shit on.
 Any suggestions or any other bullshit like that about the tab then contact me
at alc0h0lika@hotmail.com
Comments