Troggs - Love Is All Around Chords & Tabs

 

Love Is All Around Chords & Tabs

Troggs Chords & Tabs

Version: 1 Type: Tab 0 ratings
1 star 2 stars 3 stars 4 stars 5 stars
comments

Love Is All Around Tab

   
Intro								
-----------------------------------------------------
-----------------------------------------------------
-----------------------------------------------------
-----------------------------------------------------
-0---0-5---5-7---7-55---2-0-----0-5---5-7---7-55---2-
-----------------------------------------------------


Verse 1

   D         Em        G         A         D         Em        G         A
E -2---2-2---0-0-0-0---3-3-3-3---0-0-0-0---2-2-2-2---0-0-0-0---3-3-3-3---0-0-0-0
B -3---3-3---0-0-0-0---0-0-0-0---0-0-0-0---3-3-3-3---0-0-0-0---0-0-0-0---0-0-0-0
G -2---2-2---0-0-0-0---0-0-0-0---2-2-2-2---2-2-2-2---0-0-0-0---0-0-0-0---2-2-2-2
D -0---0-0---2-2-2-2---0-0-0-0---2-2-2-2---0-0-0-0---2-2-2-2---0-0-0-0---2-2-2-2
A -----------2-2-2-2---2-2-2-2---2-2-2-2-------------2-2-2-2---2-2-2-2---2-2-2-2
E ---------------------3-3-3-3---------------------------------3-3-3-3----------  x4
  

-----------
-----------
-----------
-----------
-----------
-7-5-2--02-


Chorus 
 G                 Em                G                 D
-3----3-3--3-------0----0-0--0-------3----3-3--3-------2----2-2--2---
-0----0-0--0-------0----0-0--0-------0----0-0--0-------3----3-3--3---
-0----0-0--0-------0----0-0--0-------0----0-0--0-------2----2-2--2---
-0----0-0--0-------2----2-2--2-------0----0-0--0-------0----0-0--0---
-2----2-2--2-------2----2-2--2-------2----2-2--2---------------------
-3----2-3--3-------------------------3----3-3--3---------------------

 G                 Em                G                 A
-3----3-3--3-------0----0-0--0-------3----3-3--3-------0----0-0--0-0-
-0----0-0--0-------0----0-0--0-------0----0-0--0-------0----0-0--0-0-
-0----0-0--0-------0----0-0--0-------0----0-0--0-------2----2-2--2-2-
-0----0-0--0-------2----2-2--2-------0----0-0--0-------2----2-2--2-2-
-2----2-2--2-------2----2-2--2-------2----2-2--2-------2----2-2--2-2-
-3----2-3--3-------------------------3----3-3--3---------------------


-------
-------
-------
-------
-------
-0-2-4-

[ Tab from: http://www.guitartabs.cc/tabs/t/troggs/love_is_all_around_tab.html ]
Verse 2
  
   D         Em        G         A         D         Em        G         A
E -2---2-2---0-0-0-0---3-3-3-3---0-0-0-0---2-2-2-2---0-0-0-0---3-3-3-3---0-0-0-0
B -3---3-3---0-0-0-0---0-0-0-0---0-0-0-0---3-3-3-3---0-0-0-0---0-0-0-0---0-0-0-0
G -2---2-2---0-0-0-0---0-0-0-0---2-2-2-2---2-2-2-2---0-0-0-0---0-0-0-0---2-2-2-2
D -0---0-0---2-2-2-2---0-0-0-0---2-2-2-2---0-0-0-0---2-2-2-2---0-0-0-0---2-2-2-2
A -----------2-2-2-2---2-2-2-2---2-2-2-2-------------2-2-2-2---2-2-2-2---2-2-2-2
E ---------------------3-3-3-3---------------------------------3-3-3-3----------  x4


-----------
-----------
-----------
-----------
-----------
-7-5-2--02-


Chorus 
 G                 Em                G                 D
-3----3-3--3-------0----0-0--0-------3----3-3--3-------2----2-2--2---
-0----0-0--0-------0----0-0--0-------0----0-0--0-------3----3-3--3---
-0----0-0--0-------0----0-0--0-------0----0-0--0-------2----2-2--2---
-0----0-0--0-------2----2-2--2-------0----0-0--0-------0----0-0--0---
-2----2-2--2-------2----2-2--2-------2----2-2--2---------------------
-3----2-3--3-------------------------3----3-3--3---------------------

 G                 Em                G                 A
-3----3-3--3-------0----0-0--0-------3----3-3--3-------0----0-0--0-0-
-0----0-0--0-------0----0-0--0-------0----0-0--0-------0----0-0--0-0-
-0----0-0--0-------0----0-0--0-------0----0-0--0-------2----2-2--2-2-
-0----0-0--0-------2----2-2--2-------0----0-0--0-------2----2-2--2-2-
-2----2-2--2-------2----2-2--2-------2----2-2--2-------2----2-2--2-2-
-3----2-3--3-------------------------3----3-3--3---------------------


-------
-------
-------
-------
-------
-0-2-4-


Verse 3

   D         Em        G         A         D         Em        G         A
E -2---2-2---0-0-0-0---3-3-3-3---0-0-0-0---2-2-2-2---0-0-0-0---3-3-3-3---0-0-0-0
B -3---3-3---0-0-0-0---0-0-0-0---0-0-0-0---3-3-3-3---0-0-0-0---0-0-0-0---0-0-0-0
G -2---2-2---0-0-0-0---0-0-0-0---2-2-2-2---2-2-2-2---0-0-0-0---0-0-0-0---2-2-2-2
D -0---0-0---2-2-2-2---0-0-0-0---2-2-2-2---0-0-0-0---2-2-2-2---0-0-0-0---2-2-2-2
A -----------2-2-2-2---2-2-2-2---2-2-2-2-------------2-2-2-2---2-2-2-2---2-2-2-2
E ---------------------3-3-3-3---------------------------------3-3-3-3---------- 



Verse 1
I feel it in my fingers, I feel it in my toes
Well love is all around me, and so the feeling grows
It's written on the wind, it's everywhere I go
So if you really love me, come on and let it show

Chorus
You know I love you, I always will
My mind's made up by the way that I feel
There's no beginning, there'll be no end
'Cause on my love you can depend

Verse 2
I see your face before me, as I lay on my bed
I kinda get to thinking, of all the things you said
You gave your promise to me, and I gave mine to you
I need someone beside me in everything I do

Chorus
You know I love you, I always will
My mind's made up by the way that I feel
There's no beginning, there'll be no end
'Cause on my love you can depend

Verse 3
It's written on the wind, it's everywhere I go
So if you really love me, come on and let it show
Come on and let it show
Come on and let it show
Come on and let it show
Come on and let it show
Come on and let it show (fade out)
Comments