Trivium - Washing Away Me In The Tides Chords & Tabs

 

Washing Away Me In The Tides Chords & Tabs

Trivium Chords & Tabs

Version: 1 Type: Tab

Washing Away Me In The Tides Tab

   
-------------------------------------------------------------------------------
			     Washing Away Me in the Tides - Trivium
-------------------------------------------------------------------------------
Tabbed by: Joshua Coppola
Email: joshcoppola@adelphia.net

Tuning: Drop D (DADGBe)


*Note- This tab is only for guitar 1, guitar 2 plays mostly the same riffs only harmonized to thirds. 
Also, this tab definately isn't 100% correct, but it's close enough for rock and roll. 
Hopefully this will inspire someone to actually figure it out.


Opening riff/verse riff: (Timing's a little tricky, just listen to the song.)
e|--------------------------------------------|--------------------------------------------|
B|--------------------------------------------|--------------------------------------------|
G|-7--------7-----------------------10-9-7----|-7--------7--------------------10-10-x-9-9--|
D|-----------------------------------------10-|--------------------------------------------|
A|-5--------5----8p7h8----8-7~-8878-----------|-5--------5----8p7h8----8-7~-x-8--8--x-7-7--|
D|-0-000000-0-00-------88---------------------|-0-000000-0-00-------88---------------------|

[ Tab from: http://www.guitartabs.cc/tabs/t/trivium/washing_away_me_in_the_tides_tab.html ]
Pre-Chorus:
e|--------------------------------------|-------------------------------------|
B|--------------------------------------|-------------------------------------|
G|-----------------------9-10-14-12-10--|-10-----9-----10----9----9h10--------|
D|-12-000-10-000-10-12------------------|----000---000----00---00-------------|
A|--------------------------------------|-------------------------------------|
D|--------------------------------------|-------------------------------------|


Chorus: (I don't have the whole part of this riff down, here's what I have)
e|--------8--------5---------------------------12-------------------------------|
B|------5--------5---8-5---?-?---6-5-----?--?-----13----------------------------|
G|-----------------------------------5---------------14-------------------------|
D|----7--------7-----------?-?-----------?--?-----------------------------------|
A|-/5--------0------------------------------------------------------------------|
D|------------------------------------------------------------------------------|


Breakdown:
e|---------------------------------------------------------------------------|
B|---------------------------------------------------------------------------|
G|---------------------------------------------------------------------------|
D|---------------------------------------------------------------------------|
A|-----------------5~----------------7~---------------8~------------10-8-7-8-|
D|-0--5/7-10--7~-7-----0-5/7-10-7~-7----0-5/7-10-7~-7----0-5/7-10-7----------|





| /  slide up
| \  slide down
| h  hammer-on
| p  pull-off
| ~  vibrato
| +  harmonic
| x  Mute note
===============================================================================