Trivium - Rain Chords & Tabs

 

Rain Chords & Tabs

Trivium Chords & Tabs

Version: 4 Type: Tab 0 ratings
1 star 2 stars 3 stars 4 stars 5 stars
comments

Rain Tab

   
Ok this is the tab by Trivium Intro 2nd part of intro and so on this is my first tab
so bair with me on this if its bad rate it damnit here it is jam down everything but
solo



Intro-Guitar 1(w/dist)(0.00)
     D5     Eb5-C5                               D5         (Eb)(D)
|-------------------|-------------------------|---------------------------|
|-------------------|-------------------------|---------------------------|
|-------------------|-------------------------|--------------8-S-7--------|
|-----7------8S5----|----------wait-----------|--7-----------X---X--------|
|-----5------6S3----|-------------------------|--5-----------6-S-5--------|
|-------------------|-------------------------|---------------------------|
Guitar 2 (w/dist)                                             
|-------------------|-------------------------|---------------------------|
|-------------------|-------------------------|---------------------------|
|-------------------|-------------------------|---------12-S-11-----------|
|-------------------|-------------------------|----------X---X------------|
|-5------6-3--------|-------------------------|-5-------10-S-9------------|
|--0-000-----0--0---|--000-0-000-0--000-------|---0-000----------0--0-----|
PM>^ ^^^     ^  ^      ^^^ ^ ^^^ ^  ^^^           ^ ^^^          ^  ^


Guitar 1 (w/dist)
|-------------------|-------------------------|---------------------------|
|-------------------|-------------------------|---------------------------|
|-------------------|-------------------------|---------------------------|
|-------------------|-------------------------|---------------------------|
|-------------------|-------------------------|----Pick scrapes-----------|
|-------------------|-------------------------|-----*****--*****----(17)--|
                                              Slide on (17) then Release

Guitar 2(w/dist)
|-------------------|-------------------------|---------------------------|
|-------------------|-------------------------|---------------------------|
|-------------------|-------------------------|--8S10----10S8-----7S8-----|
|-------------------|-------------------------|--X-X------X-X-----X-------|
|-------------------|-------------------------|--6S8------8S6-----5S6-----|
|-0-0-0--0--0--0----|-----0--0---0-0-0--------|--------0-------0----------|
PM^ ^ ^  ^  ^  ^          ^  ^   ^ ^ ^                 ^       ^


2nd part half time (0.18)
Guitar 1 (w/dist)
   E5    Eb5           D5  Eb5-Bb5               A5
|-------------------|-------------------------|---------------------------|
|-------------------|-------------------------|---------------------------|
|-------------------|-------------------------|---------------------------|
|--0----1-(1)-------|--0---1--S8--8888--------|--7777---------------------|
|--0----1-(1)-------|--0---1--S8--8888--------|--7777---------------------|
|--0----1-(1)-------|--0---1--S8--8888--------|--7777---------------------|
                                  Alternate Picking on 8's and 7's



Guitar 2 (w/dist)
|-------------------|-------------------------|---------------------------|
|-------------------|-------------------------|---------------------------|
|-------------------|-------------------------|---------------------------|
|--11-S-12----------|-11-S-12----14--12-(12)--|--11-(11)---12-----8-------|
|---X----X----------|--X----X-----X---X-------|---X---------X-----X-------|
|---9-S-10----------|--9-S-10----12--10-(10)--|---9--(9)---10-----6-------|
Repeat previous chords or (octaves)
[ Tab from: http://www.guitartabs.cc/tabs/t/trivium/rain_tab_ver_4.html ]
Guitar 1 (w/dist) follow last bar with one below u can figure it out
   D5  Eb5                D5     Eb5             Bb5      C5
|-------------------|-------------------------|---------------------------|
|-------------------|-------------------------|---------------------------|
|-------------------|-------------------------|--3333-----5555------------|
|--0--1-(1)---------|------0------1-----------|--3333-----5555------------|
|--0--1-(1)---------|------0------1-----------|--1111-----3333------------|
|--0--1-(1)---------|------0------1-----------|---------------------------|


Repeat previous 2 bars i think not sure listen to the song 


Guitar 1 (w/dist) pre-chorus

|-------------------|-------------------------|---------------------------|
|-------------------|-------------------------|---------------------------|
|-------------------|-------------------------|---------------------------|
|----(0)------------|----------(8)------------|---------(5)---------------|
|----(0)------------|----------(8)------------|---------(5)---------------|
|----(0)------------|----------(8)------------|---------(5)---------------|



Guitar 2 (w/dist)
|-------------------|-------------------------|---------------------------|
|-------------------|-------------------------|---------------------------|
|-------------------|-------------------------|---------------------------|
|-------------------|-------------------------|---------------------------|
|--5-----3-----5----|--------8---7----5H7-----|--7----5-----7---8-7--5H7--|
|----0-0---0-0------|--0-0-0---0----0---------|---8-8---8-8--5-5-5-5------|
     ^ ^   ^ ^         ^ ^ ^   ^    ^             ^ ^   ^ ^  ^ ^ ^ ^


Guitar 1 (w/dist)
    D5                          Bb5                      C5
|-------------------|-------------------------|---------------------------|
|-------------------|-------------------------|---------------------------|
|-------------------|-------------------------|---------------------------|
|--(0)--------------|-----------(8)-----------|----------(10)-------------|
|--(0)--------------|-----------(8)-----------|----------(10)-------------|
|--(0)--------------|-----------(8)-----------|----------(10)-------------|





Guitar 2 (w/dist)
|-------------------|-------------------------|---------------------------|
|-------------------|-------------------------|---------------------------|
|-------------------|-------------------------|---------------------------|
|-------------------|-------------------------|---------------------------|
|-5-----3-----5-----|-------8--7--5H7---------|7---5----7-----8--7--7H8---|
|---0-0---0-0---0---|--0-0-0--0--0------------|-8-8--8-8-8-5-5-5--8-------|
 PM ^ ^   ^ ^   ^      ^ ^ ^  ^  ^              ^ ^  ^ ^ ^ ^ ^ ^  ^


Guitars 1&2 (w/dist)

|-------------------|-----------------------------------------------------|
|-------------------|-----------------------------------------------------|
|-------------------|-----------------------------------------------------|
|-------------------|-----------------------------------------------------|
|-12-----10---------|-----12---13---12---12----10--------131210---1210----|
|----8-8----8-8-8-8-|--8-8---8----8----8---1010--10101010-------13----1312|
PM   ^ ^    ^ ^ ^ ^    ^ ^   ^    ^    ^   ^ ^   ^ ^ ^ ^        ^     ^ ^



alright the chorus is in there just find it yourself im tired of tabbing haha its
simple just listen to the song and u will succeed theres a good tab on the solo i
checked out very accurate this is very accurate as well its basically riffs to the
entire song u just gotta figure out the pattern urself but sorry couldnt give u more
thats all i know so yeah fuck off

Comments