Trivium - Pull Harder On The Strings Of Your Martyr Chords & Tabs

 

Pull Harder On The Strings Of Your Martyr Chords & Tabs

Trivium Chords & Tabs

Version: 2 Type: Tab 0 ratings
1 star 2 stars 3 stars 4 stars 5 stars
comments

Pull Harder On The Strings Of Your Martyr Tab

   
|---------------------------------------------------------------------------|
|            Trivium - Pull Harder On The Strings Of Your Martyr            |
|---------------------------------------------------------------------------|

Tabbed by:Pete and Ben

Tuning:Drop D

Okay, so this isn't all perfect, theres a couple of bits that are a little out but
on the whole its pretty accurate. No one else has done it so I've tried, this is as
much as i can do. Maybe someone better can carry on from here. Enjoy.

Both Guitars - Main Riff
e|------------------------------------------------|
B|------------------------------------------------|
G|------------------------------------------------|
D|-7-0-------7-8-0-------8-8-8-------8-7-7--------|X2
A|-5-0-(x16)-5-5-0-(x16)-5-6-8-(x16)-6-6-7-(x16)--|
D|---0-----------0-----------8-----------7--------|
     .           .           .           .

Guitar 1 - Lead
e|----------------------------------------------|
B|----------------------------------------------|
G|-15-14-14-12-12-12---15-14-14-17-12-12/14-14--|
D|-x--x--x--x--x--x----x--x--x--x--x--x--x--x---|X2
A|-13-12-12-10-10-10---13-12-12-15-10-10/12-12--|
D|----------------------------------------------|

Guitar 2 - Rhythm
e|------------------------|
B|------------------------|
G|------------------------|
D|-0-------8------7-------|X2
A|-0-(x16)-8-(x8)-7-(x8)--|
D|-0-------8------7-------|
   
[ Tab from: http://www.guitartabs.cc/tabs/t/trivium/pull_harder_on_the_strings_of_your_martyr_tab_ver_2.html ]
Both Guitars - Main Riff
e|------------------------------------------------|
B|------------------------------------------------|
G|------------------------------------------------|
D|-7-0-------7-8-0-------8-8-8-------8-7-7--------|X2
A|-5-0-(x16)-5-5-0-(x16)-5-6-8-(x16)-6-6-7-(x16)--|
D|---0-----------0-----------8-----------7--------|
     .           .           .           .

Both Guitars - Pre-Chorus Riff
e|-----------------------------------------------------------------------------------------|
B|-----------------------------------------------------------------------------------------|
G|-------14-----------12-----------------14-----------12-----------14--------------17------|
D|-0-1-0-x-(x4)-0-1-0-x-(x4)-(x2)--7-888-x-(x4)-7-888-x-(x4)-7-888-x-(x4)-7-101010-x-(x4)--|X2
A|-0-1-0-12-----0-1-0-10-----------7-888-12-----7-888-10-----7-888-12-----7-101010-15------|
D|-0-1-0--------0-1-0--------------7-888--------7-888--------7-888--------7-101010---------|

Chorus
e|-----------------------------------------------------|------------------|
B|-----------------------------------------------------|------------------|
G|-----10----------------------------------------------|------------------|
D|-0---x---10-------------------------10-----77788888--|-7------44466666--|
A|-0---8---10------10-8b--10h12p10h12-8-(x8)-55555555--|-7-(x8)-44444444--|
D|-0-0---0-10-0-8b--------------------8------55555555--|-7------44444444--|
     .   .    . 

| /  slide up
| \  slide down
| h  hammer-on
| p  pull-off
| ~  vibrato
| +  harmonic
| .  Palm Mute
Comments