Trivium - Ember To Inferno Chords & Tabs

 

Ember To Inferno Chords & Tabs

Trivium Chords & Tabs

Version: 1 Type: Bass Tab

Ember To Inferno Bass Tab

   
Band- Trivium
Song- Ember To Inferno

Gtr I (E A D G) - 'Bass'

 Intro
  Q=120
 4/4
  Gtr I
  H    S S E S S E   S S S S S S S S S S S S  S S E
|------------------|--------------------------------|
|------------------|--------------------------------|
|------------------|-----7---9-------7---9---10---9-|
|-0----0-0---0-0---|-0-0---0---0-0-0---0---0----0---|


  S S S S S S S S  S S  S S S S  E
|----------------------------------|
|----------------------------------|
|-----7---9-------12---10---9---10-|
|-0-0---0---0-0-0----0----0---0----|


  T T T T E T T T T E T T T T E T T T T E   S S S S S S S S S S S S S S E
|-----------------------------------------|-------------------------------|
|-----------------------------------------|-------------------------------|
|-----------------------------------------|-------------------------------|
|-8-8-8-8-8-8-8-8-8-8-8-8-8-8-8-8-8-8-8-8-|-5-5-5-5-5-5-5-5-5-5-5-5-5-5-5-|


                                 Verse
                              $
                              $$
  S S S S S S S S S E.  S  E.     S S S S S S S S S S S S  S S E
|-----------------------------||----------------------------------|
|-----------------------------||o---------------------------------|
|-----------------------------||o-----7---9-------7---9---10---9--|
|-7-7-7-7-7-7-7-7-8-8--10-10--||--0-0---0---0-0-0---0---0----0----|


  S S S S S S S S  S S  S S S S  E   T T T T E T T T T E T T T T E T T T T E
|----------------------------------|-----------------------------------------|
|----------------------------------|-----------------------------------------|
|-----7---9-------12---10---9---10-|-----------------------------------------|
|-0-0---0---0-0-0----0----0---0----|-8-8-8-8-8-8-8-8-8-8-8-8-8-8-8-8-8-8-8-8-|


  S S S S S S S S S S S S S S E   S S S S S S S S S E.  S  E.
|-------------------------------|------------------------------|
|-------------------------------|------------------------------|
|-------------------------------|------------------------------|
|-5-5-5-5-5-5-5-5-5-5-5-5-5-5-5-|-7-7-7-7-7-7-7-7-8-8--10-10---|


  S E. S S S S S S S S S S S S   S E. S S S S S S S S S S S S
|------------------------------|------------------------------|
|------------------------------|------------------------------|
|------------------------------|------------------------------|
|-0-0--0-0-0-0-0-0-0-0-0-0-0-0-|-0-0--0-0-0-0-0-0-0-0-0-0-0-0-|


                                1.
                      To Coda
                      To Coda
  S E. S S S S S S S S S S S S   S E. S S S S S S E S S E
|------------------------------|---------------------------||
|------------------------------|--------------------------o||
|------------------------------|--------------------------o||
|-0-0--0-0-0-0-0-0-0-0-0-0-0-0-|-0-0--0-0-0-0-0-0---0-0----||


 2.
  &
  S E. S S S S S S S S S S S S
|--------------------------------|
|--------------------------------|
|--------------------------------|
|-0-0--0-0-0-0-0-0-0-0-0-0-0-0---|


  S S S S S S S S S S S S S S S S   S S S S S S S S S S S S S S S S
|---------------------------------|---------------------------------|
|---------------------------------|---------------------------------|
|-3-3-3-3-3-3-3-3-3-3-3-3-3-3-3-3-|-5-5-5-5-5-5-5-5-5-5-5-5-5-5-5-5-|
|---------------------------------|---------------------------------|


  S E. S S S S S S S S S S S S   S E. S S S S S S E S S E
|------------------------------|--------------------------||
|------------------------------|--------------------------||
|------------------------------|--------------------------||
|-0-0--0-0-0-0-0-0-0-0-0-0-0-0-|-0-0--0-0-0-0-0-0---0-0---||


   Pre-Chorus
    E E E E E E E E   E E E E E E E E   E E E E E E E E   E E E E E E E E
||------------------|-----------------|-----------------|-------------------||
||o-----------------|-----------------|-----------------|------------------o||
||o-----------------|-----------------|-3-3-3-3-3-3-3-3-|-5-5-5-5-5-5-5-5--o||
||--0-0-0-0-0-0-0-0-|-0-0-0-0-0-0-0-0-|-----------------|-------------------||


   Chorus
            ~~~~~~~~~                ~~~~~~~~~
    E E E   E  +E  Q  +E     E E E   E  +E  Q  +E
||-------------------------|------------------------|
||o------------------------|------------------------|
||o-------/10-(10)-9--(9)\-|-------/10-(10)-9--(9)\-|
||--0-0-0------------------|-0-0-0------------------|


                      D.S. al Coda
  E E E E E E E E   E E E E E E E E
|-----------------|-------------------||
|-----------------|------------------o||
|-3-3-3-3-3-3-3-3-|-5-5-5-5-5-5-5-5--o||
|-----------------|-------------------||

[ Tab from: http://www.guitartabs.cc/tabs/t/trivium/ember_to_inferno_btab.html ]
 Bridge
  W          +H.      +E  e   W          +H      S S E E E
|----------|----------------|----------|-------------------|
|----------|----------------|----------|-------------------|
|----------|----------------|----------|--------10p9-7-9---|
|-0--------|-(0)------(0)-0-|-0--------|-(0)-------------8-|


    E S S E S S E E E E   E S S E S S E E   E E
||----------------------|-----------------------|
||o---------------------|-----------------------|
||o-------7-------3---2-|-------7-------3-/10-9-|
||--0-5s7---0h3h5---0---|-0-5s7---0h3h5---------|


  E S S E S S E E E E   E S S E E  S S E E E
|---------------------|-----------------------||
|---------------------|----------------------o||
|-------7-------3---2-|-------7---10p9-7-9---o||
|-0-5s7---0h3h5---0---|-0-5s7---0----------8--||


 Guitar Solo
                                        D.S.S. al Dbl. Coda
 2/4       4/4                                          3/8
  Q  Q      H    H      H    Q  Q   4x E E E E E E E E   E Q
|-------||------------|-------------||-----------------|------||
|-------||o-----------|------------o||-----------------|------||
|-3--5--||o-----------|------3--5--o||-----------------|------||
|-------||--0----3----|-5-----------||-0---0---0---0---|-0----||


  &&
 4/4
  S E. S S S S S S S S S S S S   S S S S S S S S S S S S S S S S
|------------------------------|---------------------------------|
|------------------------------|---------------------------------|
|------------------------------|-3-3-3-3-3-3-3-3-3-3-3-3-3-3-3-3-|
|-0-0--0-0-0-0-0-0-0-0-0-0-0-0-|---------------------------------|


  S S S S S S S S S S S S S S S S
|----------------------------------|
|----------------------------------|
|-5-5-5-5-5-5-5-5-5-5-5-5-5-5-5-5--|
|----------------------------------|


  S E. S S S S S S S S S S S S   S E. S S S S S S E S S E
|------------------------------|--------------------------||
|------------------------------|--------------------------||
|------------------------------|--------------------------||
|-0-0--0-0-0-0-0-0-0-0-0-0-0-0-|-0-0--0-0-0-0-0-0---0-0---||


   Pre-Chorus
    E E E E E E E E   E E E E E E E E   E E E E E E E E   E E E E E E E E
||------------------|-----------------|-----------------|-------------------||
||o-----------------|-----------------|-----------------|------------------o||
||o-----------------|-----------------|-3-3-3-3-3-3-3-3-|-5-5-5-5-5-5-5-5--o||
||--0-0-0-0-0-0-0-0-|-0-0-0-0-0-0-0-0-|-----------------|-------------------||


   Out-Chorus
            ~~~~~~~~~                ~~~~~~~~~
    E E E   E  +E  Q  +E     E E E   E  +E  Q  +E
||-------------------------|------------------------|
||o------------------------|------------------------|
||o-------/10-(10)-9--(9)\-|-------/10-(10)-9--(9)\-|
||--0-0-0------------------|-0-0-0------------------|


  E E E E E E E E   E E E E E E E E   3x
|-----------------|-------------------||
|-----------------|------------------o||
|-3-3-3-3-3-3-3-3-|-5-5-5-5-5-5-5-5--o||
|-----------------|-------------------||


Duration Legend
---------------
W - whole; H - half; Q - quarter; E - 8th; S - 16th; T - 32nd; X - 64th; a - acciaccatura
+ - note tied to previous; . - note dotted; .. - note double dotted
Uncapitalized letters represent notes that are staccato (1/2 duration)
Irregular groupings are notated above the duration line
Duration letters will always appear directly above the note/fret number it represents the
duration for.  Duration letters with no fret number below them represent rests.  Multi-
bar rests are notated in the form Wxn, where n is the number of bars to rest for.  Low
melody durations appear below the staff

Tablature Legend
----------------
 h   - hammer-on
 p   - pull-off
 b   - bend
 pb  - pre-bend
 r   - bend release (if no number after the r, then release immediately)
 /\  - slide into or out of (from/to "nowhere")
 s   - legato slide
 S   - shift slide
  - natural harmonic
[n]  - artificial harmonic
n(n) - tapped harmonic
 ~   - vibrato
 tr  - trill
 T   - tap
 TP  - trem. picking
 PM  - palm muting
\n/  - tremolo bar dip; n = amount to dip
 \n  - tremolo bar down
 n/  - tremolo bar up
/n\  - tremolo bar inverted dip
 =   - hold bend; also acts as connecting device for hammers/pulls
 <>  - volume swell (louder/softer)
 x   - on rhythm slash represents muted slash
 o   - on rhythm slash represents single note slash

Misc Legend
-----------
 |  - bar
||  - double bar
||o - repeat start
o|| - repeat end
*|  - double bar (ending)
 :  - bar (freetime)
 $  - Segno
 &  - Coda
Tempo markers -  = BPM(8/16=s8/s16), where s8 = swing 8ths, s16 = swing 16ths


***************************************************************************************
* Generated using Power Tab Editor by Brad Larsen - http://powertab.guitarnetwork.org *
***************************************************************************************