Trivium - Dying In Your Arms Chords & Tabs

 

Dying In Your Arms Chords & Tabs

Trivium Chords & Tabs

Version: 1 Type: Bass Tab 0 ratings
1 star 2 stars 3 stars 4 stars 5 stars
comments

Dying In Your Arms Bass Tab

TRIVIUM - DYING IN YOUR ARMS (Bass)

Tunning Drop D

Intro
:-------------------------------------------------------------------------------|
:-------------------------------------------------------------------------- X 2-|
:-------------------------------------------------------------------------------|
:7--7-7--7-7--2-2-2-2-2-2-2-2--3-3-3--3-3--5-5-5-5-2-2-2-2----------------------|

Pre Chorus
:-----------------------------------------------------------------------------------------------------------------|
:-----------------------------------------------------------------------------------------------------------------|
:-----------------------------------------------------------------------------------------------------------------|
:7-7-7-7-7-7-7-7-7-7-7-7-7-7-7-7-2-2-2-2-2-2-2-2-2-2-2-2-2-2-2-2-3-3-3-3-3-3-3-3-3-3-3-3-3-3-3-3-2-2-2-2--2-2-2-2-|
[ Tab from: http://www.guitartabs.cc/tabs/t/trivium/dying_in_your_arms_btab.html ]
Chorus (Same as Intro)
:-------------------------------------------------------------------------------|
:-------------------------------------------------------------------------- X 2-|
:-------------------------------------------------------------------------------|
:7--7-7--7-7--2-2-2-2-2-2-2-2--3-3-3--3-3--5-5-5-5-2-2-2-2----------------------|

Verse

Pre-Chorus

Chours X 4

Bridge
:------------------------------------------------------------ -----------------|
:------------------------------------------------------------ -----------------|
:------------------------------------------------------------ -----------------|
:---7--03~-------7--03~----------------------7--03~----------7--03~--------|

Solo
:-----------------------------------------------------------------------------------------------------------------|
:-----------------------------------------------------------------------------------------------------------------|
:-----------------------------------------------------------------------------------------------------------------|
:7-7-7-7-7-7-7-7-7-7-7-7-7-7-7-7-0-0-0-0-0-0-0-0-0-0-0-0-0-0-0-0-3-3-3-3-3-3-3-3-3-3-3-3-3-3-3-3-2-2-2-2--2-2-2-2-|

When solo ends
:--------------------|
:--------------------|
:--------------------|
:-3-3---2-2----------|

Chours X 6
Comments