Trivium - Declaration Chords & Tabs

 

Declaration Chords & Tabs

Trivium Chords & Tabs

Version: 1 Type: Tab

Declaration Tab

DECLARATION

tabbed by; nate pritchett
[ Tab from: http://www.guitartabs.cc/tabs/t/trivium/declaration_tab.html ]
INTRO; play FAST
E]-------------------------------------------------------------|
B]-------------------9>10>9------------------------------------|
G]-------9-----9-----------9--------------------------9--------|
D]---6>7---6>7---6>7---------9-11---------6>7 6>7 6>7---6-7-6--|
A]--------------------------------7>9-7>9----------------------|
D]-------------------------------------------------------------|

E]--------------------------------------------------------------|
B]---------------------------------10-9-------------------------|
G]--------9-7-6--------------9-7-6------9--11--13---------------|
D]--6-7-6-------6-7-6--6-7-6------------------------------------|
A]--------------------------------------------------------------|
D]--------------------------------------------------------------|

(more to come later)