Trivium - Ashes Chords & Tabs

 

Ashes Chords & Tabs

Trivium Chords & Tabs

Version: 3 Type: Tab 0 ratings
1 star 2 stars 3 stars 4 stars 5 stars
comments

Ashes Tab

Alright, I couldn't get the backround stuff but heres the lead part for Ashes by 
<--------btw they rule...

Part 1
E-|--------7-----------7----|--10--8--8--7-------------|
B-|--7--8-----8--7--8-----8-|---------------10--8--7--8|
G-|-------------------------|--------------------------|
D-|-------------------------|--------------------------|
A-|-------------------------|--------------------------|
E-|-------------------------|--------------------------|


E-|-------------------------|--------------------------|
B-|-----8-------------------|--------------------------|
G-|--7-----7----7--7--7--9--|--7--9--11--9--11---------|
D-|----------9--------------|--------------------------|
A-|-------------------------|--------------------------|
E-|-------------------------|--------------------------|

Do this part twice...

Onto the second part
Part 2
E-|----------12-------------|--12------15--13--13--12--|
B-|--12--13------13--12--13-|------13------------------|
G-|-------------------------|--------------------------|
D-|-------------------------|--------------------------|
A-|-------------------------|--------------------------|
E-|-------------------------|--------------------------|
[ Tab from: http://www.guitartabs.cc/tabs/t/trivium/ashes_tab_ver_3.html ]
E-|----------------------12-|--------------------------|
B-|--15--13--12--13--12-----|--12------12--------9-----|
G-|-------------------------|------13---------8--------|
D-|-------------------------|--------------9-----------|
A-|-------------------------|--------------------------|
E-|-------------------------|--------------------------|

E-|-------------------------|--------------------------|
B-|--9=========-------------|--------------------------|
G-|-------------------------|--------------------------|
D-|-------------------------|--------------------------|
A-|-------------------------|--------------------------|
E-|-------------------------|--------------------------|

E-|----------12-------------|--12------15--13--13--12--|
B-|--12--13------13--12--13-|------13------------------|
G-|-------------------------|--------------------------|
D-|-------------------------|--------------------------|
A-|-------------------------|--------------------------|
E-|-------------------------|--------------------------|

E-|----------------------12-|--------------------------|
B-|--15--13--12--13--12-----|--12------12-----------9--|
G-|-------------------------|------13------------8-----|
D-|-------------------------|--------------8--9--------|
A-|-------------------------|--------------------------|
E-|-------------------------|--------------------------|

E-|-------------------------|--------------------------|
B-|--9=========-------------|--------------------------|
G-|-------------------------|--------------------------|
D-|-------------------------|--------------------------|
A-|-------------------------|--------------------------|
E-|-------------------------|--------------------------|
Comments