Trivium - Ashes Chords & Tabs

 

Ashes Chords & Tabs

Trivium Chords & Tabs

Version: 2 Type: Tab 0 ratings
1 star 2 stars 3 stars 4 stars 5 stars
comments

Ashes Tab

Ashes ...i didnt really like the other the one. so i got the one i play. 

Some of the syncopation might be a little out but u get the main idea.
[ Tab from: http://www.guitartabs.cc/tabs/t/trivium/ashes_tab_ver_2.html ]
||-------------------|-------------------|-------------------|-------------------||
||.------------------|------------8-7-8\-|-------------------|------------------.||
||-----7-------7-7h9-|-7---7-------------|---------4-----4---|-----0---------0---||
||.--5---5---5-------|-------------------|-4-5---4----7----7-|-5-4----4-5-7----7.||
||-7-------7---------|---7---7-----------|-----5-------------|-------------------||
||-------------------|-8-------8---------|-------------------|-------------------||
|
|
||-----7--------7----|-10-----8---7------|-------------------|-----0--------0----||
||.7-8----8-7-8------|--------------10-8-|-7-8-----8---------|---3--------7---7-.||
||-------------------|-------------------|-----7----------7--|-7------7-9--------||
||.------------------|-------------------|-------------------|------------------.||
||-------------------|-------------------|-------------------|-------------------||
||-------------------|-------------------|-------------------|-------------------||

|---------------------|--------------7-6-7--|---------------------|----------------------|
|------7--------7-7h9-|-7-----7-------------|---------------------|----------------------|
|----8---8----8-------|---------------------|-----8------8--------|----------------------|
|----------11---------|----6----6-----------|---5------5------5\--|---1------------------|
|-11------------------|-7----------7--------|-6------6------6-----|-----4----------------|
|---------------------|---------------------|---------------------|-4------4-------------|
|
|
|------11--------11---|-14-----12--11-------|-----------11--------|----------------------|
|-11-12--12-11-12--12-|---------------14-12-|-11-12-11----11--11--|-------9-9------------|
|---------------------|---------------------|---------12----12----|-----8----------------|
|---------------------|---------------------|---------------------|-6-6------------------|
|---------------------|---------------------|---------------------|----------------------|
|---------------------|---------------------|---------------------|----------------------|

then repeat last bar except bar dive at the end.
Comments