Trivium - Ascendancy Chords & Tabs

 

Ascendancy Chords & Tabs

Trivium Chords & Tabs

Version: 1 Type: Bass Tab 0 ratings
1 star 2 stars 3 stars 4 stars 5 stars
comments

Ascendancy Bass Tab

   
-------------------------------------------------------------------------------
			     Ascendancy - Trivium
-------------------------------------------------------------------------------

Tabbed By : Hammerzeit
e-mail: chrissalix@googlemail.com
This is a nice easy and fun metalcore song.
Tuning: Drop D

Intro x4 
G|----------------------------------------------------------------|
D|----------------------------------------------------------------|
A|----------------------------------------------------------------|
D|---4--44--4444--0--00--0000-------------------------------------|

Verse A x1
G|----------------------------------------------------------------|
D|----------------------------------------------------------------|
A|----------------------------------------------------------------|
D|--4444--4444--3333--00--33----4444--4444--3333--00--33----------|

Verse B x 1
G|----------------------------------------------------------------|
D|----------------------------------------------------------------|
A|---------7~-------7-6---------6------4------6-------------------|
D|---4444------4444-------3333-----00------33---------------------|

Bridge x2
G|----------------------------------------------------------------|
D|----------------------------------------------------------------|
A|----------------------------------------------------------------|
D|--00000000000000000-2222222222222222-0000000000000000--6-7-9~---|

Chorus x 2
G|----------------------------------------------------------------|
D|----------------------------------------------------------------|
A|----------------------------------------------------------------|
D|---4--44--4444----0--00--0000-----------------------------------|

Then 
Verse A x1
G|----------------------------------------------------------------|
D|----------------------------------------------------------------|
A|----------------------------------------------------------------|
D|--4444--4444--3333--00--33----4444--4444--3333--00--33----------|

Verse B x 1
G|----------------------------------------------------------------|
D|----------------------------------------------------------------|
A|---------7~-------7-6---------6------4------6-------------------|
D|---4444------4444-------3333-----00------33---------------------|
[ Tab from: http://www.guitartabs.cc/tabs/t/trivium/ascendancy_btab.html ]
Bridge x2
G|----------------------------------------------------------------|
D|----------------------------------------------------------------|
A|----------------------------------------------------------------|
D|--00000000000000000-2222222222222222-0000000000000000--6-7-9~---|

Chorus x 4
G|----------------------------------------------------------------|
D|----------------------------------------------------------------|
A|----------------------------------------------------------------|
D|---4--44--4444----0--00--0000-----------------------------------|

Rest Then
Go!
G|----------------------------------------------------------------|
D|----------------------------------------------------------------|
A|----------------------------------------------------------------|
D|--000000000000000000000000-6h7-9--------------------------------|

Then x 4
G|------------------------------------------------------------------|
D|------------------------------------------------------------------|
A|------------------------------------------------------------------|
D|-44444444444444444444444444444444--000000000000000000000000-6h7-9-|

Bridge x 4
G|----------------------------------------------------------------|
D|----------------------------------------------------------------|
A|----------------------------------------------------------------|
D|--44444466777766660000000000000000------------------------------|


Solo Backing x 3
G|------------------------------------------------------------------|
D|------------------------------------------------------------------|
A|------------------------------------------------------------------|
D|-4444444444444444--0000000000000000-------------------------------|

Solo end x 1
G|----------------------------------------------------------------|
D|----------------------------------------------------------------|
A|----------------------------------------------------------------|
D|--4444444444444444-------0----2---------------------------------|


Bridge x2
G|----------------------------------------------------------------|
D|----------------------------------------------------------------|
A|----------------------------------------------------------------|
D|--00000000000000000-2222222222222222-0000000000000000--6-7-9~---|


Out Chorus x 8
G|----------------------------------------------------------------|
D|----------------------------------------------------------------|
A|----------------------------------------------------------------|
D|---4--44--4444----0--00--0000-----------------------------------|

End on an open low D

Nice easy song. Fast fingers required for some sections though. Enjoy.
Comments