Trivium - And Sadness Will Sear Chords & Tabs

 

And Sadness Will Sear Chords & Tabs

Trivium Chords & Tabs

Version: 5 Type: Tab 0 ratings
1 star 2 stars 3 stars 4 stars 5 stars
comments

And Sadness Will Sear Tab

   
----------------------------------------------------------------------------
	        And Sadness Will Sear (intro) - Trivium
----------------------------------------------------------------------------
Tabbed by: Vampyryca
Email: Metal.Masters@yahoo.com

So yea, there was no good intro tab to this song, so i had to make one myself.
awesome song, easy to learn, probably my favorite from Trivium.
Trivium Forever!!!!!!!!





Tuning:BEADGbe


|--------------------------------------------------------------------------|
|--------------------------------------------------------------------------|
|--------------------------------------------------------------------------|
|--------------------------------------------------------------------------|
|-5--5-5-5----9-9--9-9----9-9--9--9--------9--9--9-9-9-9-9-9-9-9-----------|
|-3--3-3-3----6-6--6-6----7-7--7--7--------7--7--7-7-7-7-7-7-7-7-----------|
|-3--3-3-3----7-7--7-7----7-7--7--7--16\---7--7--7-7-7-7-7-7-7-7-----------|
              .    .      . .     .        .     . . . . . . . .
[ Tab from: http://www.guitartabs.cc/tabs/t/trivium/and_sadness_will_sear_tab_ver_5.html ]
|--------------------------------------------------------------------------|
|--------------------------------------------------------------------------|
|--------------------------------------------------------------------------|
|--------------------------------------------------------------------------|
|-5--5-5-5----4-4--4-4----9-9--9--9--9-9--9--9-9-9-9-9-9-9-9---------------|
|-3--3-3-3----2-2--2-2----7-7--7--7--7-7--7--7-7-7-7-7-7-7-7---------------|
|-3--3-3-3----2-2--2-2----7-7--7--7--7-7--7--7-7-7-7-7-7-7-7---------------|
              .    .      . .        . .     . . . . . . . .

|--------------------------------------------------------------------------|
|--------------------------------------------------------------------------|
|--------------------------------------------------------------------------|
|--------------------------------------------------------------------------|
|-5--5-5-5----9-9--9-9----9-9--9--9--------9--9--9-9-9-9-9-9-9-9-----------|
|-3--3-3-3----6-6--6-6----7-7--7--7--------7--7--7-7-7-7-7-7-7-7-----------|
|-3--3-3-3----7-7--7-7----7-7--7--7--16\---7--7--7-7-7-7-7-7-7-7-----------|
              .    .      . .     .        .     . . . . . . . .


|--------------------------------------------------------------------------|
|--------------------------------------------------------------------------|
|--------------------------------------------------------------------------|
|--------------------------------------------------------------------------|
|-5--5-5-5----4-4--4-4----2-2--2--2--2-2--2--2-2-2-2-2-2-2-2---------------|
|-3--3-3-3----2-2--2-2----2-2--2--2--2-2--2--2-2-2-2-2-2-2-2---------------|
|-3--3-3-3----2-2--2-2----0-0--0--0--0-0--0--0-0-0-0-0-0-0-0---------------|
              .    .      . .        . .     . . . . . . . .


Comment or Whatever. Peace.



| /  slide up
| \  slide down
| h  hammer-on
| p  pull-off
| ~  vibrato
| +  harmonic
| x  Mute note
============================================================================
Comments