Trivium - And Sadness Will Sear Chords & Tabs

 

And Sadness Will Sear Chords & Tabs

Trivium Chords & Tabs

Version: 3 Type: Tab 0 ratings
1 star 2 stars 3 stars 4 stars 5 stars
comments

And Sadness Will Sear Tab

   
Band: Trivium
Song: And Sadness Will Sear
Album: The Crusade
Tuning: Drop D Tuned Down 1 and 1/2 steps (B F# B E G# C#)

Intro/Chorus:
C#|-----------------------------------------------------------------|
G#|----------------2----2-------------------------------------------|
E |----------------2----2-------------------------------------------|
B |--------------x-2----2------7---------0--------------------------|
F#|-1-1-1-1-1----x-0----0--0-0-8----8\---0----0-0-0-0-0-0-0---------|
B |-3-3-3-3-3----x---------0-0------8\---0----0-0-0-0-0-0-0---------|
                           . .                . . . . . . .

C#|-----------------------------------------------------------------|
G#|----------------2---2--------------------------------------------|
E |----------------2---2--------------------------------------------|
B |--------------x-2---2-------0--7-7-----0-------------------------|
F#|--1-1-1-1-1---x-0---0---0-0-0--5-5-0-0-0----0-0-0-0-0-0-0--------|
B |--3-3-3-3-3---x---------0-0-0------0-0-0----0-0-0-0-0-0-0--------|
                           . .        . .      . . . . . . .
[ Tab from: http://www.guitartabs.cc/tabs/t/trivium/and_sadness_will_sear_tab_ver_3.html ]
Verse:
C#|-----------------------------------------------------------------|
G#|-----------------------------------------------------------------|
E |-----------------------9------8----------------------------------|
B |--7-----------/10------------------------------------------------|
F#|-----------------------------------------------------------------|
B |-----------------------------------------------------------------|

C#|-----------------------------------------------------------------|
G#|-----------------------------------------------------------------|
E |-----------------------9------8-----------/12--------------------|
B |--7-----------/10------------------------------------------------|
F#|-----------------------------------------------------------------|
B |-----------------------------------------------------------------|

  (This second guitar part comes in on the 2nd verse)
C#|-----------------------------------------------------------------|
G#|-----------------------------------------------------------------|
E |-----------------------------------------------------------------|
B |-7-7-7-7-7-7-7-7-7-7-7-7-7-7-7-7-3-3-3-3-3-3-3-3-0-0-0-0-0-0-0-0-|
F#|-7-7-7-7-7-7-7-7-7-7-7-7-7-7-7-7-3-3-3-3-3-3-3-3-0-0-0-0-0-0-0-0-|
B |-7-7-7-7-7-7-7-7-7-7-7-7-7-7-7-7-3-3-3-3-3-3-3-3-0-0-0-0-0-0-0-0-|
    . . . . . . . . . . . . . . . . . . . . . . . . . . . . . . . .

That's all I was able to get. Any comments, questions, corrections, or additions... 
e-mail them to me at SamTMFM@aol.com.

Thank you, and enjoy the tab!
Comments