Trivium - And Sadness Will Sear Chords & Tabs

 

And Sadness Will Sear Chords & Tabs

Trivium Chords & Tabs

Version: 1 Type: Chords 0 ratings
1 star 2 stars 3 stars 4 stars 5 stars
comments

And Sadness Will Sear Chords

   
-------------------------------------------------------------------------------
			     SONG NAME - Band Name
-------------------------------------------------------------------------------
Tabbed by: Kc Burkhart
Email:kacyburkhart17@yahoo.com

I made sum corrections to my last tab i did for this so heres an acoustic version i made

(Chords used)  G      F#        ?      D     C
e|--------------------------------------------------|
B|--------------------------------------------------|
G|-------------4-------3--------4-------7-----5-----|
D|-------------5-------4--------4-------7-----5-----|
A|-------------5-------4--------2-------5-----3-----|
E|-------------3-------2--------2-------------------|

(Intro) G,F#,? x2

    G                  D       C
Shepherd is chased by the wolves
                          D    G
Wolves who live by intolerance and hate
 D               C             D
For what they couldnt understand
G                    D       C
Blinded and vicious are the beasts
                       D    G             D
Needing and ripping at a beautiful human
         C                      D
Who did nothing more than be himself

[ Tab from: http://www.guitartabs.cc/tabs/t/trivium/and_sadness_will_sear_crd.html ]
 G           F#               ?  (the chord i dont know the name of)
Tied to the fence as they break you
 G    F#          ?
And sadness will sear
 G           F#              ?
Cold is the wind that will freeze you
 G    F#           ?
And Sadness will sear


Heres what you play for this part of the song, its originaly tremolo picking but i 
it into chords, youll kinda have to listen to the song to get the rhythem


"It's 12:53 AM, October 12th
When the scarecrow died
A victim of society's cruelty"
|------------------------------------------------------|
|------------------------------------------------------|
|----------------------------------------------------9-|
|-9---11--12---12----8-------9---11--12--11-----12---9-|
|-9---11--12---12----8-------9---11--12--11-----12---7-|
|-7---9---10--10-----6-------7---9---10--9------10-----|


Scarecrow is left crucified
Left freezing, bleeding, tired of wondering why
The wolves just couldn't understand
It's the preachers and the teachers
Government's close-minded creatures
Trying to teach us to hate
That which is different

Tied to the fence as they break you
And sadness will sear
Cold is the wind that will freeze you
And Sadness will sear

It's 12:53 AM, October 12th
When the scarecrow died
A victim of society's cruelty


It's 12:53 AM, October 12th
When the shepherd died
The candle's light will alight your departure


Tied to the fence as they break you
And sadness will sear
Cold is the wind that will freeze you
And Sadness will sear


Tied to the fence as they break you
And sadness will sear
Cold is the wind that will freeze you
And Sadness will sear
Comments