Trivium - A Gunshot To The Head Of Trepidation Chords & Tabs

 

A Gunshot To The Head Of Trepidation Chords & Tabs

Trivium Chords & Tabs

Version: 4 Type: Tab 0 ratings
1 star 2 stars 3 stars 4 stars 5 stars
comments

A Gunshot To The Head Of Trepidation Tab

   
Ok I just stole this tab from ver. 2 he got the tab right I just shortened it. I left
the main stuff in but cut out a lot of the other. This tab was stolen by lost soul567 

  Tuning: Drop D (D A D G B E)


Intro/Part 1:
(0:00)
E]---------------------------|
B]---------------------------|
G]--7~-----6~-----9~----10~--|
D]--x------x------x------x---|
A]--5~-----4~-----7~-----8~--|
D]---------------------------|

E]---------------------------|
B]---------------------------|
G]--7~-----6~----12~----10~--|
D]--x------x------x------x---|
A]--5~-----4~----10~-----8~--|
D]---------------------------|

E]-----------------------|
B]-----------------------|
G]--12~----10~-----------|
D]---x------x------/12\--|
A]--10~-----8~-----/12\--|
D]-----------------/12\--|
Intro/Part 2:
(0:16)
E]------------------------------------------------------------------------|
B]------------------------------------------------------------------------|
G]--7-----------7---6-----------6---9-----------9--10---------------------|
D]--x-----------x---x-----------x---x-----------x---x---------------------|
A]--5-----------5---4-----------4---7-----------7---8---------------------|
D]-----0-0-0-0---------0-0-0-0---------0-0-0-0---------0-0-0-0-0-0-0-0-0--|
PM     . . . .         . . . .         . . . .         . . . . . . . . .

E]------------------------------------------------------------------------------------|
B]------------------------------------------------------------------------------------|
G]--7-----------7---6-----------6---9-----------9---12-12-12-12-12-12-10-10-10-10-10--|
D]--x-----------x---x-----------x---x-----------x----x--x--x--x--x--x--x--x--x--x--x--|
A]--5-----------5---4-----------4---7-----------7---10-10-10-10-10-10--8--8--8--8--8--|
D]-----0-0-0-0---------0-0-0-0---------0-0-0-0----------------------------------------|
PM     . . . .         . . . .         . . . .

E]------------------------------------------------------------------------|
B]------------------------------------------------------------------------|
G]--7-----------7---6-----------6---9-----------9--10---------------------|
D]--x-----------x---x-----------x---x-----------x---x---------------------|
A]--5-----------5---4-----------4---7-----------7---8---------------------|
D]-----0-0-0-0---------0-0-0-0---------0-0-0-0---------0-0-0-0-0-0-0-0-0--|
PM     . . . .         . . . .         . . . .         . . . . . . . . .

E]---------------------------------------------------------------------------|
B]---------------------------------------------------------------------------|
G]--7-----------7---6-----------6---9-----------9---12-12-12-12-10-10-10-10--|
D]--x-----------x---x-----------x---x-----------x----x--x--x--x--x--x--x--x--|
A]--5-----------5---4-----------4---7-----------7---10-10-10-10--8--8--8--8--|
D]-----0-0-0-0---------0-0-0-0---------0-0-0-0-------------------------------|
PM     . . . .         . . . .         . . . .    
[ Tab from: http://www.guitartabs.cc/tabs/t/trivium/a_gunshot_to_the_head_of_trepidation_tab_ver_4.html ]
Intro/Part 3:
(0:32)
E]-----------------------------------------------------------|
B]-----------------------------------------------------------|
G]-----------------------------------------------------------|
D]------7-7-5-5-7-7-----7-7-5-5-7-7-----7-7-7-7-----5-5------|
A]------------------3-3-------------5-5---------8-8-----7-7--|
D]--0-0------------------------------------------------------|

E]-----------------------------------------------------------|
B]-----------------------------------------------------------|
G]-----------------------------------------------------------|
D]------7-7-5-5-7-7-----7-7-5-5-7-7-----7-7-7-7-----5-5------|
A]------------------3-3-------------5-5---------8-8-----7-7--|
D]--0-0------------------------------------------------------|

E]-------------------------------------------------|
B]-------------------------------------------------|
G]-------------------------------------------------|
D]-----7--5--7-----7--5--7-----7--5--7--7----5-----|
A]--------------3-----------5-------------8-----7--|
D]--0----------------------------------------------|

E]-------------------------------------------------|
B]-------------------------------------------------|
G]-------------------------------------------------|
D]-----7--5--7-----7--5--7-----7--5--7--7----5-----|
A]--------------3-----------5-------------8-----7--|
D]--0----------------------------------------------|
GUITAR 1
Harmony Interlude 1:
(1:22)
E]---------------------------------------------------------------------|
B]---------------------------------------------------------------------|
G]--9--10--9h10p9-----------------9--10--9h10p9----------12/14--12--9--|
D]-----------------12--------------------------------------------------|
A]---------------------12h13--12-----------------12--10----------------|
D]---------------------------------------------------------------------|

E]--------------------------------------------------------------------------------------|
B]--------------------------------------------------------------------------------------|
G]--10--9h10p9-----------------10-9p7----7-9-10-9p7----9-10-12-10p9----10-12-14-12p10---|
D]--------------12--------------------10------------10--------------12----------------14|
A]------------------12h13--12-----------------------------------------------------------|
D]--------------------------------------------------------------------------------------|

E]------------------------------------------------------------------|
B]------------------------------------------------------------------|
G]--10--9h10p9-----------------9--10--9h10p9----------12/14--12--9--|
D]--------------12--------------------------------------------------|
A]------------------12h13--12-----------------12--10----------------|
D]------------------------------------------------------------------|

E]--------------------------------------------------------------------------------------|
B]--------------------------------------------------------------------------------------|
G]--10--9h10p9-----------------10-9p7----7-9-10-9p7----9-10-12-10p9----10-12-14-12p10---|
D]--------------12--------------------10------------10--------------12----------------14|
A]------------------12h13--12-----------------------------------------------------------|
D]--------------------------------------------------------------------------------------|


Comments