Trivium - A Gunshot To The Head Of Trepidation Chords & Tabs

 

A Gunshot To The Head Of Trepidation Chords & Tabs

Trivium Chords & Tabs

Version: 1 Type: Tab 0 ratings
1 star 2 stars 3 stars 4 stars 5 stars
comments

A Gunshot To The Head Of Trepidation Tab

-------------------------------------------------------------------------------
           A gunshot to the head of trepidation - Trivium
-------------------------------------------------------------------------------
Tabbed by:Wild Bill

Tuning:dadgbe

This is just the fast bit of the solo its all based on the same scale i think its
the diminished scale so get gud at tht nd you will be able to play it.  Some bits
are dodgey but feel free to correct my tab i cudnt b bothered with th really hard
bit so it sounds a bit to dodge nd probably 2 simple.

e|--18P15--------------------------------------15h17-15-14-17-14--------|
B|---------16P15-------------------------15H16--------------------15----|
G|----------------15S12------------12S15-----------------------------14-|
D|------------------------13P12H13--------------------------------------|
A|----------------------------------------------------------------------|
E|----------------------------------------------------------------------|
[ Tab from: http://www.guitartabs.cc/tabs/t/trivium/a_gunshot_to_the_head_of_trepidation_tab.html ]
e|-14S10--8------------------------------------------------------------8|
B|----------10-7------------------------------7---------7-8-10-8-10-11--|
G|---------------7--------7---------7-10-7-10---10-7-10-----------------|
D|-------------------7-10---10-7-10-------------------------------------|
A|----------------------------------------------------------------------|
E|----------------------------------------------------------------------|

e|------------8-10-11-13-11-10----------10-11-13B15--13-11-10-----------|
B|-11-10-8-11------------------13-10-13-----------------------13-11-13--|
G|----------------------------------------------------------------------|
D|----------------------------------------------------------------------|
A|----------------------------------------------------------------------|
E|----------------------------------------------------------------------|

e|-10-11-13-15-13-12----------12-13-15-16-15-13----------14-15-17-18-16-|
B|-------------------15-13-15-------------------17-15-17----------------|
G|----------------------------------------------------------------------|
D|----------------------------------------------------------------------|
A|----------------------------------------------------------------------|
E|----------------------------------------------------------------------|

e|-15----------18----------18-20B---------------------------------------|
B|----18-16-18-----19B-19B----------------------------------------------|
G|----------------------------------------------------------------------|
D|----------------------------------------------------------------------|
A|----------------------------------------------------------------------|
E|----------------------------------------------------------------------|
Comments