Triumph - Blinding Light Show Chords & Tabs

 

Blinding Light Show Chords & Tabs

Triumph Chords & Tabs

Version: 2 Type: Tab 0 ratings
1 star 2 stars 3 stars 4 stars 5 stars
comments

Blinding Light Show Tab

----------------------------------------------------------------------------
			     Blinding Light Show - Triumph
----------------------------------------------------------------------------
Tabbed by: Kevin Murphy
Email:

Tuning: Standard

e|-7---7-10---10-7---7-7p0---0-7---7-10--8-7-7---7-7p0---0-|
b|--0-0-0--0-0--0-0-0-0---0-0---0-0-0--0----0-0-0-0---0-0--|
g|---0------0------5-------5-----0------0------5-------5---|
d|---------------------------------------------------------|
a|---------------0-----0---------------------0-----0-------|
E|-0-----0---------------------0-----0---------------------|
	
e|--2---2-2---3p2-2---2-0----0----2------------0--0-|
b|---3-3---4-4-----3-3-3-0----5----2-4---5--------0-|
g|----2--4--2-------0-----0-0--2-2----2-2-2---2-2-0-|
d|-0----------------------2----4------4-----2----2--|
a|--------2-------3-----3-----2------2------2-----2-|
E|-----------------------------------------0------0-|

e|-7---7-12-------------7---7h8-7-5-8-5h8p5----|
b|--0-0-0---8-12-8h12p8--0-0---------------5---|
g|---0-----9-----------9--5-----------------5--|
d|-------------------------------------------7-|
a|----------------------0----------------------|
E|-0-----0-------------------------------------|

e|--5-3-2----------------/---2--0----0-|
b|-4-----5-3-------------/--0-0--0-----|
g|--5-4-2---5-4-2--------/-----2--0-0--|
d|-4-----5-4-----5-4-2-1-/-1----2--2---|
a|----------6-6-3--------/-------------|
E|---------------7-5-3-2-/-------------|

e|---2--2-0----0-2---(7)-2---(7)-0----0-----(12)-|
b|--0-0----0------3-3-(7)-3-3-(7)-0------1-(12)--|
g|-----2----0-0----0-------0-------0-0----(12)---|
d|-1------2--2---2-------2----------2---2--------|
a|-------------------------------3-----3---------|
E|-----------------------------------------------|

e|-2---2-------------(7)-------(12)-(7)-(5)-|
b|--3-3-----(7)-----(7)(7)-----(12)-(7)-(5)-|
g|---2--4--(7)-(7)-(7)--(7)-12-(12)-(7)-(5)-|
d|-0-----0-- -----9-------------------------|
a|--------9---------------------------------|
E|------------------------0-----------------|

e|-0-------------------------------------------------|
b|--0------------------------------------------------|
g|---0-----------------------------------------------|
d|----4---4-5-4-4-5--4-5-4-4-5--4-5-4-4-5--4-5-4-4-5-|
a|-----7-2-----2----3-----3----4-----4----3-----3----|
E|------7----------0----------0----------0-----------|

e|--0--0--0--0--0--0--0--0--0--0--0--0--0--0--0--0--|
b|---0--0--0--0--0--0--0--0--0--0--0--0--0--0--0--0-|
g|--------------------------------------------------|
d|-------4--5--4-----4--5--------4--5--4-----4--5---|
a|----2-----------2-----------3-----------3---------|
E|-0-----------------------0------------------------|
[ Tab from: http://www.guitartabs.cc/tabs/t/triumph/blinding_light_show_tab_ver_2.html ]
e|--0--0--0--0--0--0--0--0--0--0--0--0--0--0--0--0--|
b|---0--0--0--0--0--0--0--0--0--0--0--0--0--0--0--0-|
g|--------------------------------------------------|
d|-------4--5--4-----4--5--------4--5--4-----4--5---|
a|----4-----------4-----------3-----------3---------|
E|-0-----------------------0------------------------|

e|--0--0--0--0--0--0--0--0--0--0--0--0--0--0--0--0--|
b|---0--0--0--0--0--0--0--0--0--0--0--0--0--0--0--0-|
g|--------------------------------------------------|
d|-------4--5--4-----4--5--------4--5--4-----4--5---|
a|----2-----------2-----------3-----------3---------|
E|-0-----------------------0------------------------|

e|--0--0--0--0--0--0--0--0--0--0--0--0--0--0--0--0--|
b|---0--0--0--0--0--0--0--0--0--0--0--0--0--0--0--0-|
g|--------------------------------------------------|
d|-------4--5--4-----4--5--------5-----------6------|
a|----4-----------4-----------5-----5-----7-----7---|
E|-0-----------------------0-----------0------------|

e|--0--0--0--0--0--0--0--0--0--0--0--0--0--0--0--0--0--0--0--0--0--0--0--|
b|---0--0--0--0--0--0--0--0--0--0--0--0--0--0--0--0--0--0--0--0--0--0--0-|
g|----0--5--4--5--0--4--5--------5--4--7--5--4--2--0--2--0---------------|
d|-------------------------0--4-----------------------------4--2--0------|
a|-0-----------------------------------------------------------------2---|
E|-----------------------------------------------------------------------|
	
e|--0--0--0--0--0--0--0--0--0--0--0--0--0--0--0--0--0--0--0--0--0--0--0---|
b|---0--0--0--0--0--0--0--0--0--0--0--0--0--0--0--0--0--0--0--0--0--0--0--|
g|-------0--------0--------------5--4--5--0--4--5--------5--4--7--5--4--2-|
d|----2-----2-----------------2--------------------0--4-------------------|
a|-3-----------3-----3--2--0----------------------------------------------|
E|------------------------------------------------------------------------|

e|----2--2--2--2--2--2--2--0--0--0--0--0--0--0--|
b|--0--3--3--3--2--2--2--2--1--1--1--1--0--0--0-|
g|------0--------0------------------------------|
d|---------2--------4-----0--3-----3-----3--2---|
a|---2--------0--------0--------0---------------|
E|-0----------------------------------3---------|

e|--0--------------------------------0---------------|
b|---0-3--3--3--3--3--3--3--3--0--0-0---0--0--0--0---|
g|------3--3--3--3--2--2--2--2--2--2--2--2--2--2--2--|
d|-------1-----1-----1--0--------2-----2-----2--1----|
a|----3-----------------------------------2--------2-|
E|-3---------3-----1-------1--2----------------------|

e|-3-3-2--0---0-2-3-3-2--0--------3-3-2--0---0--|
b|--0---3--1---0---0---3--1-3-5-7--0---3--1---0-|
g|-------2--0-----------2----0-0-0------2--0----|
d|-2---0-----2--0-2---0-----4-5-7-2---0-----2---|
a|--------3--------------3---------------3------|
E|----------------------------------------------|

e|-------------------------------------------------------------------------|
b|-------------------------------------------------------------------------|
g|----------------------------------------------7-9--7-5-7-----------------|
d|-----------9-10-9-7-9--------------5-5-7-9--5-9-10-9-7-9-9-----5---5-7-5-|
a|-7-7-9-10-7----------7----7--7-9-7-7-7-9-10-7------------7-7-9-7-9-7-9-7-|
E|----------------------8-10-10------------------------------8-10--10-----0|
Comments