Trist - Girl Cowboy Chords & Tabs

 

Girl Cowboy Chords & Tabs

Trist Chords & Tabs

Version: 1 Type: Tab 0 ratings
1 star 2 stars 3 stars 4 stars 5 stars
comments

Girl Cowboy Tab

Title: Girl Cowboy
Group: Trist
Tabed by: Matt L.
My e-mail: showmaster94@aol.com 

Play intro as if playing the well know generic blues riff

Standard tuning

Light Distortion

(intro/main riff)
e:----------------------------------------------------------------------------------------------------------
b:----------------------------------------------------------------------------------------------------------
g:----------------------------------------------------------------------------------------------------------
d:----------------------------------------------------------------------------------------------------------
a:--7-7--7-7--7-7--7-7--9-9--9-9--9-9--9-9--7-7--7-7--7-7--7-7--5-5--5-5--5-5--5-5--
e:--5-5--5-5--5-5--5-5--5-5--5-5--5-5--5-5--5-5--5-5--5-5--5-5--3-3--3-3--3-3--3-3--

e:----------------------------------------------------------------------------------
b:----------------------------------------------------------------------------------
g:----------------------------------------------------------------------------------
d:----------------------------------------------------------------------------------
a:--7-7--7-7--7-7--7-7--9-9--9-9--9-9--9-9--7-7--7-7--7-7--7-7--7
e:--5-5--5-5--5-5--5-5--5-5--5-5--5-5--5-5--5-5--5-5--5-5--5-5--5
[ Tab from: http://www.guitartabs.cc/tabs/t/trist/girl_cowboy_tab.html ]
(solo)(plays pretty quick)
e:------------------------------------------------------------------------------------------------------
b:-------------------------------------------------------------------------------------------------------
g:-----------5---5---7---7/9---7---5-----------------5---------------------------------------------
d:--7---7-----------------------------------7---7--7-------7---5---7--5---------5----------------
a:--------------------------------------------------------------------------------7------7--5Bend--
e:-------------------------------------------------------------------------------------------------------

   (a little faster this time)
e:----------------------------------------------------------------------------------------------------------
b:----------------------------------------------------------------------------------------------------------
g:----------------------------------------------------------------------------------------------------------
d:----------------------------------------------------------------------------------------------------------
a:--7-7--7-7--7-7--7-7--9-9--9-9--9-9--9-9--7-7--7-7--7-7--7-7--5-5--5-5--5-5--5-5--
e:--5-5--5-5--5-5--5-5--5-5--5-5--5-5--5-5--5-5--5-5--5-5--5-5--3-3--3-3--3-3--3-3--

e:----------------------------------------------------------------------------------
b:----------------------------------------------------------------------------------
g:----------------------------------------------------------------------------------
d:----------------------------------------------------------------------------------
a:--7-7--7-7--7-7--7-7--9-9--9-9--9-9--9-9--7-7--7-7--7-7--7-7--7
e:--5-5--5-5--5-5--5-5--5-5--5-5--5-5--5-5--5-5--5-5--5-5--5-5--5

(ending fill)
e:----------------------------------------------------------------------------------
b:----------------------------------------------------------------------------------
g:----------------------------------------------------------------------------------
d:----------------------------------------------------------------------------------
a:--7--7---8--8---7---5---------------------------------------------------------
e:-----------------------------8----7---5~~~~~~~~~~~~~~~~~~~~~
Comments