Tripping Daisy - Rocketpop Chords & Tabs

 

Rocketpop Chords & Tabs

Tripping Daisy Chords & Tabs

Version: 1 Type: Tab 0 ratings
1 star 2 stars 3 stars 4 stars 5 stars
comments

Rocketpop Tab

   
"Rocketpop" off of Tripping Daisy's "I Am An Elastic Firecracker"album

INTRO/VERSE RYTHYM GUITAR PART
e|----|
B|----|
G|----|
D|-8--|
A|-8--|
E|-6--|

Strum many, many times

INTRO LEAD
e|-------------------------------------------------|
B|-------------------------------------------------|
G|-------------------------------------------------|
D|-8-8-8-8-12-12-12-12-13-13-13-13-15-15-15-15-----|
A|-------------------------------------------------|
E|-------------------------------------------------|

e|-------------------------------------------------|
B|-------------------------------------------------|
G|-------------------------------------------------|
D|-18-18-18-18-18-18-18-18-18-18-18-18-18-18-18-18-|
A|-------------------------------------------------|
E|-------------------------------------------------|

VERSE LEAD
e|-------------------------------------------------|
B|-------------------------------------------------|
G|-15-15-15-15-13-13-13-13-12-12-12-12-10-10-10-10-|
D|-------------------------------------------------|
A|-------------------------------------------------|
E|-------------------------------------------------|

Play this 2 times and then play this...

e|-------------------------------------------------|
B|-15-15-15-15-13-13-13-13-11h13-11h13-11h13-11h13-|
G|-------------------------------------------------|
D|-------------------------------------------------|
A|-------------------------------------------------|
E|-------------------------------------------------|

e|-------------------------------------------------|
B|-11-11-11-11-9-9-9-9-8-8-8-8-6-6-6-6-------------|
G|-------------------------------------------------|
D|-------------------------------------------------|
A|-------------------------------------------------|
E|-------------------------------------------------|
[ Tab from: http://www.guitartabs.cc/tabs/t/tripping_daisy/rocketpop_tab.html ]
OH! RIFF
e|-------------------------------------------------|
B|-------------------------------------------------|
G|-------------------------------------------------|
D|-5-5-5-7-7-7-4-4-4-5-5-5-5-----------------------|
A|-5-5-5-7-7-7-4-4-4-5-5-5-5-----------------------|
E|-3-3-3-5-5-5-2-2-2-3-3-3-3-----------------------|
Play this 4 times.

"BREAKDOWN"
e|-------------------------------------------------|
B|-------------------------------------------------|
G|-------------------------------------------------|
D|-4-4--4-4--4-4--4-4--4--4------------------------|
A|-4-4--4-4--4-4--4-4--4--4------------------------|
E|-2-2--2-2--2-2--2-2--2--2------------------------|
Play 2 times.

"70's" PART
e|-----8-8-8--4-4-4--------------------------------|
B|-----8-8-8--4-4-4--------------------------------|
G|-----8-8-8--5-5-5-6p5----------------------------|
D|-8-8-8-8-8--6-6-6-----6--------------------------|
A|-6-6--------6-6-6--------------------------------|
E|-6-6--------4-4-4--------------------------------|
play 10 times(except the last rotation and in that case, play 4 times to close the song).

ORDER OF SONG:
1)INTRO/VERSE RYTHYM GUITAR PART(While this is going on, the INTRO LEAD guitar part comes
in and then goes straight into the VERSE LEAD as vocals come in...the rythym part remains the same)
2)OH! RIFF(Both guitars play this)
3)INTRO/VERSE RYTHYM GUITAR PART(The VERSE LEAD comes in at the same time)
4)OH! RIFF
5)INTRO/VERSE RYTHYM GUITAR PART / VERSE LEAD
6)OH! RIFF
7)"BREAKDOWN"(Both guitars play this)
8)"70's" PART(This part may be wrong in terms of how I tabbed it, but it sounds close to accurate)
9)"BREAKDOWN"
10)"70's" PART
11)"BREAKDOWN"
12)INTRO/VERSE RYTHYM GUITAR PART(The INTRO LEAD comes in again and then goes straight into the VERSE LEAD )
13)OH! RIFF
14)INTRO/VERSE RYTHYM GUITAR PART / VERSE LEAD
15)OH! RIFF
16)"70's" PART(Play 4 times instead of 10)
Comments