Tripl3fastaction - Superstar Chords & Tabs


Superstar Chords & Tabs

Tripl3fastaction Chords & Tabs

Version: 1 Type: Tab 0 ratings
1 star 2 stars 3 stars 4 stars 5 stars

Superstar Tab

#----------------------------------PLEASE NOTE---------------------------------#
#This file is the author's own work and represents their interpretation of the #
#song. You may only use this file for private study, scholarship, or research. #

From: Michael L. Heuer [heuermh@CAA.MRS.UMN.EDU]
Sent: Tuesday, January 20, 1998 10:49 PM
Subject: TAB: /t/tripl3fastaction/ (fwd)

artist:  Tripl3fastaction
album:   Broadcaster
song:    Superstar

(acoustic with delay effect)


   Cadd9 G/B   D+             Cadd9 G/B   Cadd9
e --------------------------|-------------------3------|
B --------------------------|---------------------3----|
G -----0-----0-----0-----0--|-----0-----0-----0-----0--|
D ---2-----0-----4-----4----|---2-----0-----2----------|
A -3-----2-----5-----5------|-3-----2-----3------------|
E --------------------------|--------------------------|

[ Tab from: ]
   G    G/F#   Em            G/F   G/F# G
e -------------------0------|-------------------3------|
B ---------------------0----|---------------------3----|
G -----------------------0--|-----------------------0--|
D -----0-----0-----2--------|-----0-----0-----0--------|
A ---2-----0-----2----------|---0-----0-----2----------|
E -3-----2-----0------------|-1-----2-----3------------|

we won't be taught no more
sue ohmelong (!?)
wish for something more

i shoke the hands of time
he is a friend of mine
but all he had to say
he was sorry

C               D
and i'll wait
C               D
some kind of superstar
C               D             E
no matter where you are tonight

   E                         E                   Eb D C
e -------------------------|----------------------------|
B -------------------------|----------------------------|
G -------------------------|---9-----9-----9----9-8-7-5-|
D -------------------------|---9-----9-----9----9-8-7-5-|
A -------------------------|-2-7---2-7---2-7--2-7-6-5-3-|
E -0-0-0-etc---------------|-0-----0-----0----0---------|

C               D
some kind of superstar

C  D  E

C           D
nah nah na na na nah


intro x1
verse x2

end on G


Cadd9:   x32033
G/B:     x20033
D+:      x54055
G:       320033
G/F#:    200033
G/F:     100033

Written by Wesley Kidd and tripl3fastaction
c1995 Songs of Polygram International, Inc. and Music Made With Love