Trinity Roots - Little Things Chords & Tabs

 

Little Things Chords & Tabs

Trinity Roots Chords & Tabs

Version: 1 Type: Tab 0 ratings
1 star 2 stars 3 stars 4 stars 5 stars
comments

Little Things Tab

Sorry, I made some transcripting errors in the last version,
I played the song right, but I transcribed it wrong.

Band: Trinity Roots v2.0 (woo Kiwi music!)
Album: True
Song: Little Things 

Tabbed by: J Montagu
Email: drover_ AT hotmail.com

Standard tuning

Let ring...

::Verse::						   		 

e|-----------------|-----------------|-----------4-----|-------------------|
b|-----1---------3-|-----4-------4---|-------4-----4---|-------4-----------|
g|-------------3---|-----------5---5-|----(6)--6-------|-----6-------------|
D|---3-3-----5-----|---6-6-----------|---6-----------6-|---6---------------|
A|-----------------|---------3---3---|-4-----4---------|-4------3/4-3------|
E|-1-----1-3-------|-4-----4---------|-----------------|--------------6-4/-|

Second time (minor changes):
[ Tab from: http://www.guitartabs.cc/tabs/t/trinity_roots/little_things_tab.html ]
e|-----------------|-----------------|-----------4-----|-------------------|
b|-----1-------3---|-----4-------4---|-------4-----4---|-------4-----------|
g|-----------------|-----------5---5-|----(6)--6-------|-----6-------------|
D|---3-3-----5-5---|---6-6-----------|---6-------------|---6---------------|
A|-----------------|---------3---3---|-4-----4---------|-4------3/4-3------|
E|-1-----1-3-----3-|-4-----4---------|-----------------|--------------6-4/-|

(Repeat between both until Chorus)


::Chorus::

e|-----------------|-----------------|
b|-----1-------3---|-----4-------3---|
g|-----------------|-----------------| Repeat lots then back to ::Verse::
D|---3---3---5---5-|---6-6-----5---5-|
A|-----------------|-----------------|
E|-1-------3-------|-4-----4-3-------|



Please please please check in mine eyes
For I and I have nothing to hide
As I wipe the slate clean, share this with you
Take on my own, the pain of your soul

It's the little things
That really matter

These fine fine lines, make for trying times
And trying times, make you strong
You take your strength, pass it around
Pass it around, and then move on



Any comments or corrections please email me at drover_ AT Hotmail.com
Comments