Trik Turner - Not Like You Chords & Tabs

 

Not Like You Chords & Tabs

Trik Turner Chords & Tabs

Version: 1 Type: Tab 0 ratings
1 star 2 stars 3 stars 4 stars 5 stars
comments

Not Like You Tab

Artist: Trik Turner
Song: Not Like You
Transcribed by: Jared Knutzen
Tuning: Drop "D" 


This is my first tab, so I hope it is good enough.


Intro/ Fill

[ Tab from: http://www.guitartabs.cc/tabs/t/trik_turner/not_like_you_tab.html ]
E----------------------------------------------------------------------------------------I
B----------------------------------------------------------------------------------------I
G------------8-----8-----------8-----8-------------5------5-------------5-----5----------I
D----------------------------------------------------------------------------------------I
A----------------------------------------------------------------------------------------I
D---10--10------10------8--8------8---------7--7-------7---------6--6------6-------------I
Repeat several times


Chorus

E----------------------------------------------------------------------------------------I
B----------------------------------------------------------------------------------------I
G----------------------------------------------------------------------------------------I
D------0----0-----------2-----2-----------3-----3-----------2-----2-----------0----0-----I
A----0----0---0-------2-----2---2-------3-----3---3-------2-----2---2-------0----0---0---I
D--0----0-------0---2-----2-------2---3-----3-------3---2-----2-------2---0----0-------0-I

Then back to Fill


Comments