Trik Turner - Friends And Family Chords & Tabs

 

Friends And Family Chords & Tabs

Trik Turner Chords & Tabs

Version: 1 Type: Bass Tab 0 ratings
1 star 2 stars 3 stars 4 stars 5 stars
comments

Friends And Family Bass Tab

   
Song:Friend And Family
Artist:Trik Turner
Album:Trik Turner
Tabbed:Nativefubu (andrewm05@hotmail.com)
Date:Thursday March 28, 2002

Tuning:Standard

Intro   (0:15)
G|-----------|
D|-----------|
A|-----------|
E|--12\------|

1st Verse
G|---------------------------------------------------|
D|---------------------------------------------------|
A|---------------------------------------------------|  3 times
E|-0h3*----5*-----8--------8---------8---------8\----|
  
  
Chorus(1:03) Same as 1rt verse   (3 times)

 2nd Verse  (1:34)
G|-----------|
D|-----------|
A|-----------|
E|--12\------|
[ Tab from: http://www.guitartabs.cc/tabs/t/trik_turner/friends_and_family_btab.html ]
             Do (A) 3 times then  (B) last time
  2nd Verse                                   A        B
G|-----------------------------------------|--------|------|
D|-----------------------------------------|--------|------|
A|-----------------------------------------|--------|------|  
E|-0h3*----5*-----8--------8---------8-----|---8\---|---8--|


Bridge (1:56)
G|---------------------------------------------|
D|---------------------------------------------|
A|---------------------------------------------|
E|--8------8---8-----8-----8----8---8-------8--|

G|---------------------------------------------------|
D|---------------------------------------------------|
A|---------------------------------------------------|
E|--10-------10---10-----------8--------8---8------8-|

G|---------------------------------------------------|
D|---------------------------------------------------|
A|---------------------------------------------------|
E|--10*-----------10----10*------10-------------10\--|

Outro   (2:17)
G|---------------------------------------------------|
D|---------------------------------------------------|   3 times
A|---------------------------------------------------|  
E|-0h3*----5*-----8--------8---------8---------8\----|
  
G|-----|
D|-----|
A|-----|  
E|--3--|
  

That's It Guys or Gals
Comments