Trigun - Wolfwood Theme Chords & Tabs

 

Wolfwood Theme Chords & Tabs

Trigun Chords & Tabs

Version: 1 Type: Tab 0 ratings
1 star 2 stars 3 stars 4 stars 5 stars
comments

Wolfwood Theme Tab

   
 ------------------------------------------------------
|                                                      |
|   Wolfwood theme                                     |
|     Tsuneo Imahori                                   |
|                                                      |
|                                  _            _      |
|                                 / \          / \     |
|                                /            /        |
|                             /\/          /\/         |
|                             \            \           |
|                          i/\/     g    /\/           |
|                         r/g      i u  /              |
|                        t/  u nt r   n/               |
|                         r g      i u                 |
|                          i        g                  |
|                                                      |
|                                                      |
 ------------------------------------------------------


The title is actually,"Rakuen (Paradise)".

Even though I found the name someware else, 
thanks to: "Hawk127" for the correct song name.

Tabbed by: 
-------------------------------------------------------


A little more than a year ago did a tab of this song the first
time. But, after checking back a year a later I saw the
comment of A certain ">>wolfwood<<" (ug user name) that prompted
me to do it over (basically he said it sucked).

Hopefully this version is alot more acurate.


--------------------------------------------------------


//////////////////////////////////////////////////////
->->->->->->->->->->->->->->->->->->->->->->->->->->->
Tuning: Dsus4



Standard Tuning             Dsus4 Tuning

                Tune
E|----|          <- this->  D|----|   
B|----|           <- this-> A|----| 
G|----|                     G|----|
D|----|                     D|----|
A|----|                     A|----|
E|----|       <- and this-> D|----|

                    string down one whole note,
                    from standard, for Dsus4



Finger picking required but, it's easy.
<-<-<-<-<-<-<-<-<-<-<-<-<-<-<-<-<-<-<-<-<-<-<-<-<-<-<-
\\\\\\\\\\\\\\\\\\\\\\\\\\\\\\\\\\\\\\\\\\\\\\\\\\\\\\

(It's a highway. HaHA!)
----------------------------------------------------------------------------------------------
<-<-<-<-<-<-<-<-<-<-<-<-<-<-<-<-<-<-<-<-<-<-<-<-<-<-<-<-<-<-<-<-<-<-<-<-<-<-<-<-<-<-<-<-<-<-<-
---------------------------------------------------------------------------------------------
->->->->->->->->->->->->->->->->->->->->->->->->->->->->->->->->->->->->->->->->->->->->->->->
----------------------------------------------------------------------------------------------
00:00

00:01
D|-0-----0-----0---0---0--|--0----0---0---0---0---|
A|-0-----0-----0---0---0--|--0----0---0---0---0---|
G|-0-----0-----0---0---0--|--0----0---0---0---0---|
D|-0-----0-----0---0---0--|--0----0---0---0---0---|
A|-5-----5---5-5---5---5--|--5--5-5---5---3---5---|
D|-2-----2-----3---3\5-2--|--2----3---3-1-1---3---|

D|-------------------------------------|-------------0---------------------|
A|-------0-2-2h3p2---------0-----0-----|-------0---4-----------0-----0-----|
G|---------0-------------0-----0-----0-|---------2-----------0-----0-----0-|
D|-----5-----------5-------------------|-----5---4-----5-------------------|
A|---5---------------5-3-----3-----2---|---5-------------5-3-----3-----2---|
D|-5-----------------------------------|-5---------------------------------|

D|-----------------------------------|-----------------------------------|
A|-----------------------------------|-----------------------------------|
G|-----------------------------------|-----------------------------------|
D|----0---5-----5-------5------5-----|----0---5-----5-------5------5-----|
A|------5-----5---5---5----5-5---5-5-|------5-----5---5---5----5-5---5-5-|
D|-\5-------5-------5-----5----------|--5-------5-------5-----5----------|

00:43
D|---------0-----------------------|---------0-----------------------|
A|-------0-3-----------0-----0-----|-------0-3-----------0-----0-----|
G|-----------4-------0-----0-----0-|-----------4-------0-----0-----0-|
D|-----5---5---5---4---------------|-----5---5---5---4---------------|
A|---5-----------3-------3-----2---|---5-----------3-------3-----2---|
D|-5-------------------------------|-5-------------------------------|

D|---------0-----------------------|---------0-----------------------|
A|-------0-3-----------0-----0-----|-------0-3-----------0-----0-----|
G|-----------4-------0-----0-----0-|-----------4-------0-----0-----0-|
D|-----5---5---5---4---------------|-----5---5---5---4---------------|
A|---5-----------3-------3-----2---|---5-----------3-------3-----2---|
D|-5-------------------------------|-5-------------------------------|

01:04
D|-------------------------------------|-------------0---------------------|
A|-------0-2-2h3p2---------0-----0-----|-------0---4-----------0-----0-----|
G|---------0-------------0-----0-----0-|---------2-----------0-----0-----0-|
D|-----5-----------5-------------------|-----5---4-----5-------------------|
A|---5---------------5-3-----3-----2---|---5-------------5-3-----3-----2---|
D|-5-----------------------------------|-5---------------------------------|

D|---------0-----------------------|---------0-----------------------|
A|-------0-3-----------0-----0-----|-------0-3-----------0-----0-----|
G|-----------4-------0-----0-----0-|-----------4-------0-----0-----0-|
D|-----5---5---5---4---------------|-----5---5---5---4---------------|
A|---5-----------3-------3-----2---|---5-----------3-------3-----2---|
D|-5-------------------------------|-5-------------------------------|

D|---------0-----------------------|-----0---0----------------------|
A|-------0-3-----------0-----0-----|---------0----------------------|
G|-----------4-------0-----0-----0-|-----4------0-------5-7-----5-7-|
D|-----5---5---5---4---------------|------------------5-------5-----|
A|---5-----------3-------3-----2---|---5-----------7--------6-------|
D|-5-------------------------------|-5-----5-----5------------------|


/\\\\\\\\\\\\\\\\\\\\\\\\\\\\\\\\\\\\\\\\\\\\\\\\\\\\\\\\\\\\\\\\\\\\\\\\\\\\\\\\\\\/

01:37
D|-----------------------------------|-----------------------------------|
A|-----------------------------------|-----------------------------------|
G|-----------------------------------|-----------------------------------|
D|----0---5-----5-------5------5-----|----0---5-----5-------5------5-----|
A|------5-----5---5---5----5-5---5-5-|------5-----5---5---5----5-5---5-5-|
D|-\5-------5-------5-----5----------|--5-------5-------5-----5----------|

D|---------0-----0-----------------|---------0-----0-------------0---|
A|-------0-----0-------5-----------|-------0-----0-------5-----------|
G|-----------0-----------5---4-0---|-----------0-------------------0-|
D|-----5---3---------5-------------|-----5---3---------5---5---5-----|
A|---5-------------7-------6-----6-|---5-------------7-------6-------|
D|-5-------------------------------|-5-------------------------------|
[ Tab from: http://www.guitartabs.cc/tabs/t/trigun/wolfwood_theme_tab.html ]
D|---------0-----0---------------|--------------------------|
A|-------0-----0-------0-----0---|---------0----------------|
G|-----------0-------0-----0-----|------------6-4---7--x-7--|
D|-----5---4-------------4-----4-|-------5----6-5---5--x-5--|
A|---5-------------3-------------|-----5------7-5---7--x-7--|
D|-5-----------------------------|-045------------5---------|

02:09
D|---------------------------------|------------------------0--|
A|---------0-3X5--5-------0-3-5--5-|-------0-3-5--5-------0----|
G|-----------2X0------------2-0----|---------2-0---------------|
D|-------5--------------5----4-----|-----5----4---------5------|
A|-----5--------------5------------|---5--------------5--------|
D|-045--------------5--------------|-5--------------5----------|

D|-------------------------0-------|-------------------------0-------|
A|-------0-------0-------0---0-----|-------0-------0-------0---0-----|
G|-----0-------0-----------4-------|-0---0-------0-------0-------0---|
D|---4-------4---------0-------0---|---4-------4-------4-----------4-|
A|-3-----------------2-----------2-|-3-------------------------------|
D|---------0-------5---------------|---------0-------2---------------|

D|-------------------------0-------|-------------------------0---------|-------------0--|
A|-------0-------0-------0---0-----|-------0-------0-------0---0-------|-------------0--|
G|-----0-------0-----------4-------|-----0-------0-------0--------0----|----------0-----|
D|---4-------4---------0-------0---|---4-------4-------4-------------4-|-------4--------|
A|-3-----------------2-----------2-|-3---------------------------------|----2-----------|
D|---------0-------5---------------|---------0-------2-----------------|-2--------------|

02:46
D|---------0-----0-------------------|---------0-----0------------------|
A|-------0-------0-------------------|-------0-------0------------------|
G|---------2\4---2\5-----5-----5-----|---------2\4---2\5-----5-----5----|
D|-----5-------0-------5-----5-----0-|-----5-------0-------5-----5----0-|
A|---5---------------8-----8-----7---|---5---------------8-----5----7---|
D|-5---------------------------------|-5--------------------------------|

D|---------0------0-0------------------|-----0-----0-0--------------------|
A|-------0-----------------7-----------|----------------------------------|
G|---------2\4---------------5---------|-----2\4---2-0--------5-7-----5-7-|
D|-----5-------0--------5--------9---0-|--------------------5-------5-----|
A|---5----------------8--------8---7---|---5-------------7--------6-------|
D|-5-----------------------------------|-5-------5-----5------------------|


/\\\\\\\\\\\\\\\\\\\\\\\\\\\\\\\\\\\\\\\\\\\\\\\\\\\\\\\\\\\\\\\\\\\\\\\\\\\\\\\\\\\/


03:08
D|-----------------------------------|-----------------------------------|
A|-----------------------------------|-----------------------------------|
G|-----------------------------------|-----------------------------------|
D|----0---5-----5-------5------5-----|----0---5-----5-------5------5-----|
A|------5-----5---5---5----5-5---5-5-|------5-----5---5---5----5-5---5-5-|
D|-\5-------5-------5-----5----------|--5-------5-------5-----5----------|

D|---------0-----0-----------------|---------0-----0-------------0---|
A|-------0-----0-------5-----------|-------0-----0-------5-----------|
G|-----------0-----------5---4-0---|-----------0-------------------0-|
D|-----5---3---------5-------------|-----5---3---------5---5---5-----|
A|---5-------------7-------6-----6-|---5-------------7-------6-------|
D|-5-------------------------------|-5-------------------------------|

D|---------0-----0---------------|--------------------------|
A|-------0-----0-------0-----0---|---------0----------------|
G|-----------0-------0-----0-----|------------6-4---7--x-7--|
D|-----5---4-------------4-----4-|-------5----6-5---5--x-5--|
A|---5-------------3-------------|-----5------7-5---7--x-7--|
D|-5-----------------------------|-045------------5---------|

D|---------------------------------|------------------------0--|
A|---------0-3-5--5-------0-3-5--5-|-------0-3-5--5-------0----|
G|-----------2-0------------2-0----|---------2-0---------------|
D|-------5----4---------5----4-----|-----5----4---------5------|
A|-----5--------------5------------|---5--------------5--------|
D|-045--------------5--------------|-5--------------5----------|

03:53
D|-------------------------0-------|-------------------------0-------|
A|-------0-------0-------0---0-----|-------0-------0-------0---0-----|
G|-0---0-------0-----------4-------|-----0-------0-------0-------0---|
D|---4-------4---------0-------0---|---4-------4-------4-----------4-|
A|-3-----------------2-----------2-|-3-------------------------------|
D|---------0-------5---------------|---------0-------2---------------|

D|-------------------------0-------|-------------------------0-------|
A|-------0-------0-------0---0-----|-------0-------0-------0---0-----|
G|-----0-------0-----------4-------|-----0-------0-------0-------0---|
D|---4-------4---------0-------0---|---4-------4-------4-----------4-|
A|-3-----------------2-----------2-|-3-------------------------------|
D|---------0-------5---------------|---------0-------2---------------|

04:15
D|-------------------------0-------|-------------------------0-------|
A|-------0-------0-------0---0-----|-------0-------0-------0---0-----|
G|-----0-------0-----------4-------|-0---0-------0-------0-------0---|
D|---4-------4---------0-------0---|---4-------4-------4-----------4-|
A|-3-----------------2-----------2-|-3-------------------------------|
D|---------0-------5---------------|---------0-------2---------------|

D|-------------------------0-------|-----------------|
A|-------0-------0-------0---0-----|-------0-------0-|
G|-0---0-------0-----------4-------|-0---0-------0---|
D|---4-------4---------0-------0---|---4-------4-----|
A|-3-----------------2-----------2-|-3---------------|
D|---------0-------5---------------|---------0-------|

D|-------------------------------------|-------------0---------------------|
A|-------0-2-2h3p2---------0-----0-----|-------0---3-----------0-----0-----|
G|---------0-------------0-----0-----0-|---------4-----------0-----0-----0-|
D|-----5-----------5-------------------|-----5---4-----5-------------------|
A|---5---------------5-3-----3-----2---|---5-------------5-3-----3-----2---|
D|-5-----------------------------------|-5---------------------------------|

D|-------------------------------------|-------------0-------------0-------|
A|-------0-2-2h3p2---------0-----0-----|-------0---3-------------0---0-----|
G|---------0-------------0-----0-----0-|---------4-----------0---------0---|
D|-----5-----------5-------------------|-----5---4-----5-------4---------4-|
A|---5---------------5-3-----3-----2---|---5-------------5-3---------------|
D|-5-----------------------------------|-5---------------------------------|

04:57
D|-0----0--0-----0------|
A|-0----0---------------|
G|-0----0-------2-------|
D|-0----0------4--------|
A|-5----3-----0---------|
D|-3----1---------------|

5:17
----------------------------------------------------------------------------------------------
<-<-<-<-<-<-<-<-<-<-<-<-<-<-<-<-<-<-<-<-<-<-<-<-<-<-<-<-<-<-<-<-<-<-<-<-<-<-<-<-<-<-<-<-<-<-<-
---------------------------------------------------------------------------------------------
->->->->->->->->->->->->->->->->->->->->->->->->->->->->->->->->->->->->->->->->->->->->->->->
----------------------------------------------------------------------------------------------

Mmmm...





Comments