Tricky Woo - Tails Of A Sunray Chords & Tabs

 

Tails Of A Sunray Chords & Tabs

Tricky Woo Chords & Tabs

Version: 1 Type: Tab 0 ratings
1 star 2 stars 3 stars 4 stars 5 stars
comments

Tails Of A Sunray Tab

   
Tails Of A Sunray - Tricky Woo
Standard Tuning E-A-D-G-B-E

Main riff:

E-----------|
B-----------|
G-2---2-2-2-|
D-2---2-2-2-|
A-0---0-0-0-|
E---3-------|

Pre-chorus

'With the sparrows.....'

E--------------------|
B-5----7----10----12-|
G-5----7----10----12-|
D-5----7----10----12-|
A-0----0----0-----0--|
E--------------------|

Chorus 1

'Oh my Lord, Where has the sun gone....'
[ Tab from: http://www.guitartabs.cc/tabs/t/tricky_woo/tails_of_a_sunray_tab.html ]
E---------|----|
B---------|----|
G-9-7-5---|-7b-|
D-------7-|----|
A---------|----|
E---------|----|

Chorus 2

'Fly on! Fly on!....'

E---------------------|---|----------------------|
B---------------------|---|----------------------|
G---------------------|-7-|----------------------|
D-5h7p5h7p5h7p5h7-7-7-|-7-|-7-7--5-5--2-2------2-|
A-----------------7-7-|-5-|-7-7--5-5--2-2------2-|
E-----------------5-5-|---|-5-5--3-3--0-0------0-|

Then there is a change of this riff in the end:

E--------------|
B--------------|
G-7br-5--------|
D--------7--7-7|
A-----------7-7|
E-----------5-5|
Comments