Trick Daddy - Lets Go Chords & Tabs

 

Lets Go Chords & Tabs

Trick Daddy Chords & Tabs

Version: 4 Type: Tab 0 ratings
1 star 2 stars 3 stars 4 stars 5 stars
comments

Lets Go Tab

Artist: Trick Daddy ft. Lil Jon & Twista
Song: Let's Go
No. of guitarist(s): 1
Tuning: DADGBE

The guitar is basically the same throughout the whole song. I've seen tabs for this song
and the solos aren't right i've corrected them...i think.

E|------------------------------------|
B|------------------------------------|
G|--------2-2----------------7-7--9-9-|
D|-4-4----2-2--2-2----4-4----7-7--9-9-|
A|-4-4----0-0--2-2----4-4----5-5--7-7-|
D|-4-4---------2-2----4-4-------------|

E|------------------------------------|
B|------------------------------------|
G|--------2-2-------------------------|
D|-4-4----2-2--2-2----4-4----0-0--2-2-|
A|-4-4----0-0--2-2----4-4----0-0--2-2-|
D|-4-4---------2-2----4-4----0-0--2-2-|  the whole song is played like this until..

Solo:
[ Tab from: http://www.guitartabs.cc/tabs/t/trick_daddy/lets_go_tab_ver_4.html ]
L. Guitar:
E|-----9---10---9---7-7-5------------|
B|-------7----7---7-------10-9-7-5---|
G|-----------------------------------|
D|-4-4-------------------------------|
A|-4-4-------------------------------|
D|-4-4-------------------------------|

E|-----9---10---9---7-7-5------------|
B|-7-7---7----7---7-------10-9-7-5---|
G|-----------------------------------|
D|-----------------------------------|
A|-----------------------------------|
D|-----------------------------------| repeat until the last bit of the solo

E|-----9---10---9---------------|
B|-7-7---7----7---7-------------|
G|-------------------7-7--9-9---|
D|-------------------7-7--9-9---|
A|-------------------5-5--7-7---|
D|------------------------------|

that's as close as i can get..lol i tried to buy the cd but i couldn't find it
Comments