Trick Daddy - Lets Go Chords & Tabs

 

Lets Go Chords & Tabs

Trick Daddy Chords & Tabs

Version: 2 Type: Tab 0 ratings
1 star 2 stars 3 stars 4 stars 5 stars
comments

Lets Go Tab

-------------------------------------------------------------------------------
			     Let's Go - Trick Daddy
-------------------------------------------------------------------------------
Tabbed by:Ace496970
Email:Ace496970@yahoo.com

Tuning:Standard

If you don't know, this is basically Crazy Train (Ozzy)
[ Tab from: http://www.guitartabs.cc/tabs/t/trick_daddy/lets_go_tab_ver_2.html ]
e|---------------------------------------------------------------------------|
B|---------------------------------------------------------------------------|
G|-------2-2---------------7--7----------------------------------------------|
D|4-4----2-2--2-2--4--4----7--7--2-2--4--4-----------------------------------|
A|4-4----0-0--2-2--4--4----5--5--2-2--4--4-----------------------------------|
E|2-2---------0-0--2--2----------0-0--2--2-----------------------------------|


e|---------------------------------------------------------------------------|
B|---------------------------------------------------------------------------|
G|---------------------------------------------------------------------------|
D|---------------------------------------------------------------------------|
A|------4---5---4-----2-2--0----0--------------------------------------------|
E|2--2----2---2---2---------------5--4--0------------------------------------|

Every once and a while, he scrapes down the neck on the A string.
This song is really Ozzy's, but some people are stupid and dont know.
Comments