Tribal Tech - Got Tuh Be Chords & Tabs

 

Got Tuh Be Chords & Tabs

Tribal Tech Chords & Tabs

Version: 1 Type: Tab

Got Tuh Be Tab

Got Tuh Be - Tribal Tech 

(tabbed by Fizzy 'Cus) 

---

Break Riff:

Guitar and Bass: ( - = 16th note)
E| ---------------------------------------------------------------- |
B| ---------------------------------------------------------------- |
G|.000-0000--0-00-0-00-0000--00--0-000-00--0000--00-0-00000---000-0.|
D|.----------------------------------------------------------------.|
A| ---------------------------------------------------------------- |
E| ---------------------------------------------------------------- |

[ Tab from: http://www.guitartabs.cc/tabs/t/tribal_tech/got_tuh_be_tab.html ]
Root Notes for Keyboard Hits;(Simplistic Guitar Emulation):
E| ---------------------------------------------------------------- |
B| ---------------------------------------------------------------- |
G|.--------8-6-----------5--8-6------------------------------------.|
D|.-8--7-6-----6h8--6--6---------7-6-5--(7)*-----------------------.|
A| ----------------8----------------------------------------------- |
E| --------------------------------------9------------------------- |

*: 7 on D is played instead of 9 on E in 2nd time Bar.

(www.scottkinsey.com/TribalTech.html)