Trey Parker - Im So Ronery Chords & Tabs

 

Im So Ronery Chords & Tabs

Trey Parker Chords & Tabs

Version: 1 Type: Bass Tab

Im So Ronery Bass Tab

"I'm so Ronery"
From Team America: World Police
soppychunk@gmail.com


very slow

i'm so
ronery...      so ronerey...       no one..          sitting...
|----------------|----------------|--------5-------|----------------|
|--------3-------|--------5-----5-|------------5---|--3-------3-----|
|----------------|----------------|-3--------------|----------------|
|-1--------------|-3--------------|----------------|----------------|

I work...         nobody...        seems like...    reeee...
|----------------|----------------|----------------|7---------------|
|----------------|--------3-------|----------------|----------------|
|-1--------------|----------------|1------1--------|----------------|
|--------1-------|3---------------|----------------|----------------|
[ Tab from: http://www.guitartabs.cc/tabs/t/trey_parker/im_so_ronery_btab.html ]
I'm ronery...     ronery..         meeee...
|----------------|--------5-------|----------------|----------------|
|-------5------5-|----------------|-3------3-------|-3-------3------|
|----------------|-3--------------|----------------|----------------|
|-3--------------|----------------|----------------|----------------|

nobody...         feel like...     sirry...         filling...
|----------------|----------------|--------5-------|----------------|
|-3------3-------|-------5--------|----------------|--3-------3-----|
|----------------|------------5---|-3--------------|----------------|
|----------------|--3-------------|----------------|----------------|


smartest...       nobody...        I change...      meeee...
|----------------|----------------|----------------|7---------------|
|----------------|--------3-------|----------------|----------------|
|-1--------------|----------------|1------1--------|----------------|
|--------1-------|3---------------|----------------|----------------|


ronery...         ronery...        meeee...                    i'm so  ronery...
|----------------|--------5-------|----------------|----------------|----
|-------5------5-|----------------|-3------3-------|-3-------3------|-3--
|----------------|-3--------------|----------------|----------------|----
|-3--------------|----------------|----------------|----------------|----


what a good song