Trey Parker - Freedom Isnt Free Chords & Tabs

 

Freedom Isnt Free Chords & Tabs

Trey Parker Chords & Tabs

Version: 2 Type: Tab 0 ratings
1 star 2 stars 3 stars 4 stars 5 stars
comments

Freedom Isnt Free Tab

This is a great song...its funny and fun to play on guitar. So far I have only figured
out the Intro/Verse. I'm trying to get more of it but yeah...here's what I got so
far..and the tuning is in standard.
[ Tab from: http://www.guitartabs.cc/tabs/t/trey_parker/freedom_isnt_free_tab_ver_2.html ]
 Intro
|-------0---2-----------0---5-----------------0-------------------|
|-----3---------------3-----------------3-----------------3-------|
|---2---------------2-----------------2-------------------0-------|
|-0---------------------------------0---------------------0-------|
|-----------------4---------------2-----------------------2-------|
|-------------------------------------------------3---------------|

 Verse
|-------0---2-----------0---5-0---------------0---------3---------|
|-----3---------------3-----------------3-------3-----------3-----|
|---2---------------2-----------------2---------------2-----------|
|-0---------------------------------0-----------------------------|
|-----------------4---------------2-------------------------------|
|-------------------------------------------------3---------------|
Comments