Trey Parker - Freedom Isnt Free Chords & Tabs

 

Freedom Isnt Free Chords & Tabs

Trey Parker Chords & Tabs

Version: 1 Type: Tab

Freedom Isnt Free Tab

E|------------------5---------------------7------------------|
B|--0---3---5---7---------0---3---5---7----------------------|
G|-----------------------------------------------------------|
D|-----------------------------------------------------------|
A|-----------------------------------------------------------|
E|-----------------------------------------------------------|

|------------------5-----------------------------------------|
|--0---3---5---7-------3-------3-----------------------------|
|---------------------------2--------------------------------|
|------------------------------------------------------------|
|------------------------------------------------------------|
|------------------------------------------------------------|
[ Tab from: http://www.guitartabs.cc/tabs/t/trey_parker/freedom_isnt_free_tab.html ]