Trews - You're So Sober Chords & Tabs

 

You're So Sober Chords & Tabs

Trews Chords & Tabs

Version: 1 Type: Tab 0 ratings
1 star 2 stars 3 stars 4 stars 5 stars
comments

You're So Sober Tab

   
#----------------------------------PLEASE NOTE---------------------------------#
#This file is the author's own work and represents their interpretation of the #
#song. You may only use this file for private study, scholarship, or research. #
#------------------------------------------------------------------------------#

-------------------------------------------------------------------------
Trews
You're So Sober

Tabbed by rba
rba@vanmega.com
www.vanmega.com

Last revised: Oct 8, 2003.
-------------------------------------------------------------------------

Awesome. Canadian. Band.

Note: Standard Tuning.


PART 1: 
[ Tab from: http://www.guitartabs.cc/tabs/t/trews/youre_so_sober_tab.html ]
        Emin    Gmaj   Cmaj   Dmaj   
e |-----0-------3------0------2------
b |-----0-------3------1------3------
g |-----0-------0------0------2------
d |-----2-------0------2------0------
a |-----2-------2------3-----(0)-----
E |-----0-------3------x------x------


PART 2: 

        E       D#     D      Cmaj
e |-----x-------x------x------0------
b |-----0-------0------0------1------
g |-----0-------0------0------0------
d |-----x-------x------x------2------
a |-----7-------6------5------3------
E |-----x-------x------x------x------


PART 3:

        Gmaj    Cadd9   
e |-----3-------3------
b |-----3-------3------
g |-----0-------0------
d |-----0-------2------
a |-----2-------3------
E |-----3-------x------

-------------------------------------------------------------------------
Questions, Comments, Corrections - rba@vanmega.com
-------------------------------------------------------------------------
Comments