Trevor Rabin - Armageddon Main Guitar Theme Chords & Tabs

 

Armageddon Main Guitar Theme Chords & Tabs

Trevor Rabin Chords & Tabs

Version: 1 Type: Tab 0 ratings
1 star 2 stars 3 stars 4 stars 5 stars
comments

Armageddon Main Guitar Theme Tab

Title-Armageddon guitar theme
Artist-Trevor Rabin
Album-Armageddon score
Tuning-Standard ebgdae

Note:This is the soft guitar theme from the 1998 film score of Armageddon.
It is played by the composer, trevor rabin on an acoustic guitar.
it sounds good once you get the hang of it.
Also, this is my first tab, so i hope you enjoy it!!

e--------------------------------------------------------------------|
b--------------------------------------------------------------------|
g--------------------------------------------------------------------|
d---------------5------4-----4---------------------------------------|
a--9------5----------------------------5----5-------7----------------|
e--------------------------------------------------------------------|
[ Tab from: http://www.guitartabs.cc/tabs/t/trevor_rabin/armageddon_main_guitar_theme_tab.html ]
e------------------------------------------------------------------------|
b------------------------------------------------------------------------|
g------------------------------------------------------------------------|
d------------------------------------------------------------------------|
a--9---------10--------9-------7----------14-----------7-----------------|
e------------------------------------------------------------------------|

e----------------------------------------------------------------|
b----------------------------------------------------------------|
g----------------------------------------------------------------|
d----7----------4------------------------------------------------|
a-------------------------------7-----------9--------------------|
e----------------------------------------------------------------|
Comments