Trelore Mycul - Lee Hammond S Song Chords & Tabs

 

Lee Hammond S Song Chords & Tabs

Trelore Mycul Chords & Tabs

Version: 1 Type: Tab 0 ratings
1 star 2 stars 3 stars 4 stars 5 stars
comments

Lee Hammond S Song Tab

   
Hello, This song Is in honour of my good Chum Lee Hammond(pineapple)
who just rocks my world soo much the sexy beast, ;) Mycul just Rocks

e|---------------------------------------------------------|
B|---------------------------------------------------------|
G|---------------------------------------------------------|
D|-0-0-2-3-5-3-2---0--0-0-2-3-5-3-2-----0-0-2-3-5-3-2---0--|
A|---------------3------------------3-0---------------3----|
E|---------------------------------------------------------|
[ Tab from: http://www.guitartabs.cc/tabs/t/trelore_mycul/lee_hammond_s_song_tab.html ]
e|---------------------------------------------------------|
B|-------------------0-0-0-0-1-1-1-1-0-0-0-0-1-1-1-1-------|
G|-------------------2-2-2-2-2-2-2-2-2-2-2-2-2-2-2-2-------|
D|-0-0-2-3-5-3-2-----2-2-2-2-2-2-2-2-2-2-2-2-2-2-2-2-------|
A|---------------3-0-0-0-0-0-0-0-0-0-0-0-0-0-0-0-0-0-------|
E|---------------------------------------------------------|


e|-0-0-0-0-0-0-0-0-0-0-0-0-0-0-0-0-------------------------|
B|-1-1-1-1-0-0-0-0-1-1-1-1-0-0-0-0-0-0-0-0-1-1-1-1-0-0-0-0-|
G|-0-0-0-0-0-0-0-0-0-0-0-0-0-0-0-0-2-2-2-2-2-2-2-2-2-2-2-2-|
D|-2-2-2-2-2-2-2-2-2-2-2-2-2-2-2-2-2-2-2-2-2-2-2-2-2-2-2-2-|
A|-2-2-2-2-2-2-2-2-2-2-2-2-2-2-2-2-0-0-0-0-0-0-0-0-0-0-0-0-|
E|-0-0-0-0-0-0-0-0-0-0-0-0-0-0-0-0-------------------------|

e|---------0-0-0-0-0-0-0-0-0-0-0-0-0-0-0-0-----------------|
B|-1-1-1-1-1-1-1-1-0-0-0-0-1-1-1-1-0-0-0-0-----------------|
G|-2-2-2-2-0-0-0-0-0-0-0-0-0-0-0-0-0-0-0-0-1-1-1-1---------|
D|-2-2-2-2-2-2-2-2-2-2-2-2-2-2-2-2-2-2-2-2-2-2-2-2---------|
A|-0-0-0-0-2-2-2-2-2-2-2-2-2-2-2-2-2-2-2-2-2-2-2-2---------|
E|---------0-0-0-0-0-0-0-0-0-0-0-0-0-0-0-0-0-0-0-1---------|

Comments