Treepeople - Tongues On Thrones Chords & Tabs

 

Tongues On Thrones Chords & Tabs

Treepeople Chords & Tabs

Version: 1 Type: Tab 0 ratings
1 star 2 stars 3 stars 4 stars 5 stars
comments

Tongues On Thrones Tab

   
#----------------------------------PLEASE NOTE---------------------------------#
#This file is the author's own work and represents their interpretation of the #
#song. You may only use this file for private study, scholarship, or research. #
#This file cannot be used elsewhere without written permission from author.    #
#------------------------------------------------------------------------------#
#
|------------------------------------------|
|  Title: Tongues on Thrones               |
|  Artist: Treepeople / Doug Martsch       |
|  Tabbed: Josh Kovach -aka- Shekibobo     |
|  Email: shekibobo@hotmail.com            |
|------------------------------------------|


  Em                        C

|-0----0----0-0-0--0-----|-0----0----0-0-0--0-----|
|-0----0----1-0-3--1-----|-1----0----1-0-3--1-----|
|-0----0----0-0-0--0-----|-0----0----0-0-0--0-----|
|-2----2----2-2-2--2-----|-2----2----2-2-2--2-----|
|-2----2----2-2-2--2-----|-3----3----3-3-3--3-----|
|-0----0----0-0-0--0-----|-0----0----0-0-0--0-----|

1.The floor is cracked
        The rain is wet
                           Things that you call true
2.The walls are grey       
        but that's okay
                           Things that you call real

  G         D   D7 D       C           

|-3----3----2----3-2-----|------------------------|
|-3----3----3----3-3-----|-1----1----0-1----1-----|
|-0----0----2----2-2-----|-0----0----0-0----0-----|
|-0----0----0----0-0-----|-2----2----2-2----2-----|
|-2----2-----------------|-3----3----3-3----3-----|
|-3----3-----------------|------------------------|

1.2. I call  one in a       million

  Em        C5  B5 A5      G5        D5

|-0----0-----------------|------------------------|
|-0----0-----------------|------------------------|
|-0----0----5---4--2-----|-----------7------------|
|-2----2----5---4--2-----|-5----5----7------------|
|-2----2----3---2--0-----|-5----5----5------------|
|-0----0-----------------|-3----3-----------------| 2x

  and I don't...

  Em                        C

|-0----0----0-0-0--0-----|-0----0----0-0-0--0-----|
|-0----0----1-0-3--1-----|-1----0----1-0-3--1-----|
|-0----0----0-0-0--0-----|-0----0----0-0-0--0-----|
|-2----2----2-2-2--2-----|-2----2----2-2-2--2-----|
|-2----2----2-2-2--2-----|-3----3----3-3-3--3-----|
|-0----0----0-0-0--0-----|-0----0----0-0-0--0-----|

1.I can't hear your words
         before you say them     
                         I think I know this conversation's
2.careful calculations making
                           Science out of situations

  G         D   D7 D       C           

|-3----3----2----3-2-----|------------------------|
|-3----3----3----3-3-----|-1----1----0-1----1-----|
|-0----0----2----2-2-----|-0----0----0-0----0-----|
|-0----0----0----0-0-----|-2----2----2-2----2-----|
|-2----2-----------------|-3----3----3-3----3-----|
|-3----3-----------------|------------------------|

1.polit-    -ical          advice

2.most peo- -ple   im-    -provise

  Em        C5  B5 A5      G5        D5
[ Tab from: http://www.guitartabs.cc/tabs/t/treepeople/tongues_on_thrones_tab.html ]
|-0----0-----------------|------------------------|
|-0----0-----------------|------------------------|
|-0----0----5---4--2-----|-----------7------------|
|-2----2----5---4--2-----|-5----5----7------------|
|-2----2----3---2--0-----|-5----5----5------------|
|-0----0-----------------|-3----3-----------------| 2x

  and I don't...           I don't even want to be

  and I don't wanna see    even if it's good.

G5       D5

   I saw you stall

    B5      
and acting like

           C5                  G5
you didn't see me fallin'and I

G5            D5             C5
thought you'd pray for it to rain


G5        D5
   it was clear

             B5          
you wouldn't come down here

            C5             G5
if it would interfere with

G5       D5                  C5
what you had planned for the day


  Em        C5  B5 A5      G5        D5

|-0----0-----------------|------------------------|
|-0----0-----------------|------------------------|
|-0----0----5---4--2-----|-----------7------------|
|-2----2----5---4--2-----|-5----5----7------------|
|-2----2----3---2--0-----|-5----5----5------------|
|-0----0-----------------|-3----3-----------------| 2x



Bridge:
-All Power chords
-Rhythm: each dash or letter is an 8th note (strummed)

|  ----------------|  ----------------  |

|  1---2---3---4---|  1---2---3---4---  |

|  F#---   D--C-D--|  B----   C----     | 4x

|  ----------------|  ----------------  |


  Em                        C

|-0----0----0-0-0--0-----|-0----0----0-0-0--0-----|
|-0----0----1-0-3--1-----|-1----0----1-0-3--1-----|
|-0----0----0-0-0--0-----|-0----0----0-0-0--0-----|
|-2----2----2-2-2--2-----|-2----2----2-2-2--2-----|
|-2----2----2-2-2--2-----|-3----3----3-3-3--3-----|
|-0----0----0-0-0--0-----|-0----0----0-0-0--0-----|

1.Habits break like bombs   
                Break like bones
                                 shaped like tongues on thrones
2.you had it written all over your 
                  face and now you've
                           written it all over everybody elses face

  G         D   D7 D       C           

|-3----3----2----3-2-----|------------------------|
|-3----3----3----3-3-----|-1----1----0-1----1-----|
|-0----0----2----2-2-----|-0----0----0-0----0-----|
|-0----0----0----0-0-----|-2----2----2-2----2-----|
|-2----2-----------------|-3----3----3-3----3-----|
|-3----3-----------------|------------------------|

1.  I saw   you on         monday
2.  I thought you on       monday


  Em        C5  B5 A5      G5        D5

|-0----0-----------------|------------------------|
|-0----0-----------------|------------------------|
|-0----0----5---4--2-----|-----------7------------|
|-2----2----5---4--2-----|-5----5----7------------|
|-2----2----3---2--0-----|-5----5----5------------|
|-0----0-----------------|-3----3-----------------| 4x

  and I don't...           I don't even want to be

  and I don't wanna see    even if it's good for me
  
  I dont' wanna see        I don't even want to see
 
  and I don't   wanna be   even if it's good.   


Comments