Tree - X-communicated Chords & Tabs

 

X-communicated Chords & Tabs

Tree Chords & Tabs

Version: 2 Type: Tab 0 ratings
1 star 2 stars 3 stars 4 stars 5 stars
comments

X-communicated Tab

   
#----------------------------------PLEASE NOTE---------------------------------#
#This file is the author's own work and represents their interpretation of the #
#song. You may only use this file for private study, scholarship, or research. #
#------------------------------------------------------------------------------#
From DOleary977@aol.com Mon May 12 14:08:02 1997
Date: Sun, 4 May 1997 23:12:07 -0400 (EDT)
From: DOleary977@aol.com
To: guitar@olga.net
Subject: Tree "X-Communicated"

Tree
"X-Communicated"
Off of "Downsizing the American Dream"

[ Tab from: http://www.guitartabs.cc/tabs/t/tree/x_communicated_tab_ver_2.html ]
Dropped-D Tuning
  e-----------------------------------------------------------------------||-
  b-----------------------------------------------------------------------||-
  g-----------------------------------------------------------------------||-
  d----5----3----6---1----------------------------------------------------||-
  a----5----3----6---1----------------------------------------------------||-
  E----5----3----6---1------------2---0---2---0---2---0---0---0---2
      Intro/Ending                             verses

E|------------------------------------------------------------------------------||-
B|------------------------------------------------------------------------------||-
G|------------------------------------------------------------------------------||-
D|-----5---5---5---5-------3---3---3---3---0---3-------5---5---5---5----8--8--8-||-
A|-----5---5---5---5-------3---3---3---3---0---3-------5---5---5---5----8--8--8-||-
E|-----5---5---5---5-------3---3---3---3---0---3-------5---5---5---5----8--8--8-||-

                       chorus
                                            ^slide 
Comments